Oops, an error
Loading. Please wait.

One More Thing Bass Tab

973 views 6 this week
no commentswrite comment
1 2 3 4 5
x 5
add to favorites
launch autoscroll
font size
0
reset
guitar tuner
×
Best way to learn
"One More Thing"
Autoscroll
slow
fast
+/-
esc
set tempo
stop
Band:L7

Song:One More Thing

Album:Bricks Are Heavy

Tabbed By:Shane Davis

Tuning:Standard


Verse
G------------------------------------|
D------------------------------------|
A------------------------------------|
E-1--1-1-6-6-6-6-4--4-4--4-4-4-4-4-3-|


Chorus
G----------------------------------|----------------------------------|
D----------------------------------|----------------------------------|
A--------4-4-4---------------------|--------4-4-4---------------------|
E-6--6-6-------6--4-4-4--2-4-6-6---|-6--6-6-------6--4-4-4--2-4-6-6---|


Chorus(Continued)
G---------------------------------|---------------------------------|
D---------------------------------|---------------------------------|
A---------4-4-4-4-----------------|---------4-4-4-4-----------------|
E-6-6-6-6---------4-4-4-4-6-6-6-6-|-6-6-6-6---------4-4-4-4-6-6-6-6-|
Suggest correction
comments
print report bad tab
guest
You may want to rate the tab now too:
select rating
Wanna post a correction for this tab? Suggest correction