Oops, an error
Loading. Please wait.

Pretend Were Dead bass

version 1
version 1

Whole song

Interactive

by L7
4,391 views 1 this week
2 commentsread comments
1 2 3 4 5
x 3
add to favorites
×
Save as Personal and add changes to this tab that will be seen only by you. Learn more ›
×
You can save this tab as Personal to edit and correct it or add notes. All changes will be seen only by you. Learn more »
launch autoscroll
font size
0
reset
guitar tuner
backing track
0:00
0:00
edit
Autoscroll
slow
fast
+/-
esc
set tempo
stop
Author
Difficulty
verse
G|------------------------------|
D|------------------------------|  
A|-------------------4----------|   
E|-7-7-x-x-0-0-x-x-5---5-2--0-2-|   

chorus
G|------------------------------|
D|------------------------------|
A|-------------------4----------|
E|-7-7-7-7-0-0-0-0-5---5-2--0-2-|

bridge
G|-------------------------------------------------------|
D|-------------------------------------------------------|
A|--------------------------------6-------------4--------|
E|-2____--2/7----2/7----2/7---7-7---7-0-0-4-0-5---5-2-0-2| let the last note ring.
Suggest correction
Creating personal tab
Creating personal tab
You can edit any tab online and save it as your Personal.

You can edit, replace or remove any tab part or add personal notes – all changes will be seen only by you.

Personal tabs can be accessed anytime from any device, even offline.
Learn more »
Give kudos to tab author, rate the tab!
1 2 3 4 5
comments
print report bad tab
2 comments total.
0 reply
arrell 207 Feb 04, 2009 10:32 PM

There are various bass melodies in this song. It isn't just three riffs.

+1 reply
Carls Jr Nation 10 Aug 23, 2010 08:14 AM

G|----------------------------------|
D|----------------------------------|
A|----------------------------------|
E|-7-7-----0-0-----5-5---2~---0-2-0-|

Main riff is something like that (new to tabbing), but after playing around with it for a few minutes, that sounds about right. Listen to get the rhythm and timing.

guest
You may want to rate the tab now too:
select rating
Wanna post a correction for this tab? Suggest correction