Oops, an error
Loading. Please wait.

Shove Tab

version 1
version 1

Intro

Whole song

Interactive

by L7
1,498 views 3 this week
1 commentread comment
1 2 3 4 5
please rate
add to favorites
launch autoscroll
font size
0
reset
how to read this tab
guitar tuner
Autoscroll
slow
fast
+/-
esc
set tempo
stop
Help us to improve Ultimate-Guitar.com Take our survey!
×
Difficulty
novice
e ----------------------------------------|
b ----------------------------------------|
g ----------------------------------------|
d 7-7--5/3-3----0/2-0/2---1/0-------------|
a --------------------------------2-0-----|
E ----------------------------------------|

This sounds right to me. I couldn't find it anywhere.
Suggest correction
Give kudos to tab author, rate the tab!
1 2 3 4 5
comments
print report bad tab
1 comment total.
0 reply
iamcourtneylove 10 wrote on July 26 2006, 07:22 am

wrong! the intro goes..
e-----------------------------------------------------
b-----------------------------------------------------
g-----------------------------------------------------
d--5h7-7-5-7-5----------------------------------------
a----------------7-7----5h7-7--5h7-7--5h7-7p----------
E---------------------------------------------7-5-----

Sorta thing- go with the flow with the hammer ons its self explanatory- i'll post the rest of the tab soon :)
xxx

guest
You may want to rate the tab now too:
select rating
Wanna post a correction for this tab? Suggest correction