Oops, an error
Loading. Please wait.

I Love Rock N Roll Bass Tab

34 views 9 this week
no commentswrite comment
1 2 3 4 5
3 more votes to show rating
add to favorites
launch autoscroll
font size
0
reset
guitar tuner
Autoscroll
slow
fast
+/-
esc
set tempo
stop
Help us to improve Ultimate-Guitar.com Take our survey!
×
Author
Difficulty
G|------------------------------------------------------------|
D|------------------------------------------------------------|
A|------------------------2-2---------------------------------|
E|--0-0-----0-0-3-5-5----------3-0-0-----0-0-3-5-5---7-5-0-0--|

G|------------------------------------------------------------|
D|------------------------------------------------------------|
A|----------7-5----------------7-7----7-5---------------------|
E|--0-0---------7-5-3---0-0----------------7-5-3--------------|

G|----------------------------------------------------|
D|----------------------------------------------------|
A|-----------------7-5--------------------------------|
E|--0-0----7-7-----------7-5-3----5-5---7-7----0-0--5/|

[Just Drums and Vocals]

G|------------------------------------------------------------------------|
D|------------------------------------------------------------------------|
A|---------------------------------------2-2------------------------------|
E|--2-2-2-2--2-2-0-0---0-0---0-0-3-5-5-------3-0-0---0-0-3-5-5---7-5-0-0--|

G|------------------------------------------------------------|
D|------------------------------------------------------------|
A|----------7-5----------------7-7----7-5---------------------|
E|--0-0---------7-5-3---0-0----------------7-5-3--------------|

G|----------------------------------------------------|
D|----------------------------------------------------|
A|-----------------7-5--------------------------------|
E|--0-0----7-7-----------7-5-3----5-5---7-7----0-0--5/|

[Just Vocals and Drums]

G|------------------------------------------------------------------------|
D|------------------------------------------------------------------------|
A|---------------------------------------2-2------------------------------|
E|--2-2-2-2--2-2-0-0---0-0---0-0-3-5-5-------3-0-0---0-0-3-5-5---7-5-0-0--|

[Little solo]
G|------------------------------------------------------------|
D|------------------------------------------------------------|
A|----------7-5----------------7-7----7-5---------------------|
E|--0-0---------7-5-3---0-0----------------7-5-3--------------|

G|----------------------------------------------------|
D|----------------------------------------------------|
A|-----------------7-5--------------------------------|
E|--0-0----7-7-----------7-5-3----5-5---7-7----0-0--5/|

[Just Vocals and Drums]

[Ending]
G|-----------------------------------------------------------|
D|-----------------------------------------------------------|
A|------------------------2-2--------------------------------|
E|--0-0-----0-0-3-5-5---------3-0-0-----0-0-3-5-5---7-5-0-0--|

G|-----------------------------------------------------------|
D|-----------------------------------------------------------|
A|-----------------2-2---------------------------------------|
E|---0-0-3-5-5---------3-0-0-----0-0-3-5-5---7-5-0-0---------|

G|-----------------------------------------------------------|
D|-----------------------------------------------------------|
A|-----------------2-2---------------------------------------|
E|---0-0-3-5-5---------3-0-0-----0-0-3-5-5---7-5-0-0---------|

G|-----------------------------------------------------------|
D|-----------------------------------------------------------|
A|-----------------2-2---------------------------------------|
E|---0-0-3-5-5---------3-0-0-----0-0-3-5-5---7-5-0-----------|

Legend
/  Slide Down
Suggest correction
Give kudos to tab author, rate the tab!
1 2 3 4 5
comments
print report bad tab
guest
You may want to rate the tab now too:
select rating
Wanna post a correction for this tab? Suggest correction