Oops, an error
Loading. Please wait.

One Way Ticket Bass Tab

version 2
version 2

Whole song

828 views 9 this week
no commentswrite comment
1 2 3 4 5
excellent!
x 3
add to favorites
launch autoscroll
font size
0
reset
guitar tuner
Tab Pro tools
  • play this tab
  • loop segment
  • change instrument
  • show fretboard
  • metronome
×
Best way to learn
"One Way Ticket"
Autoscroll
slow
fast
+/-
esc
set tempo
stop
Contributor
Difficulty
--------------------------------------------------------------------------------------
                                             One Way Ticket - L.A. Guns
--------------------------------------------------------------------------------------

Tabbed by: ChrisT

From the album: L.A. Guns (1988)

Tuning: Standard

Intro
G|-----------------------------------------------------|
D|-----------------7---------7\--------7---------7\----|
A|---------3-2-0-------0-0-----3-2-0-------0-0---------|
E|-----------------------------------------------------|

Verse 1                                   
G|----------------------------------------------------------------------------------|
D|---------7---------7\--------7---------7\--------7---------7\--------7---------7\-|
A|-3-2-0-------0-0-----3-2-0-------0-0-----3-2-0-------0-0-----3-2-0-------0-0------|
E|----------------------------------------------------------------------------------|

G|---------7---------7\------10-9-7---7h9p7\-----------------------------------------|
D|-3-2-0-------0-0-----3-2-0------------------------7---------7\--------7---------7\-|
A|------------------------------------------3-2-0-------0-0-----3-2-0-------0-0------|
E|-----------------------------------------------------------------------------------|

Chorus
G|--------------------------------------------------------------------|
D|--------------------------------------------------------------------|
A|---3-3-3-3-3-3-3-3-3-2-2-2-2-2-2----------7-------5---------3-------|
E|---------------------------------3-2-0------0-0-------0-------------|

Verse 2                                  
G|----------------------------------------------------------------------------------|
D|---------7---------7\--------7---------7\--------7---------7\--------7---------7\-|
A|-3-2-0-------0-0-----3-2-0-------0-0-----3-2-0-------0-0-----3-2-0-------0-0------|
E|----------------------------------------------------------------------------------|

G|---------7---------7\------10-9-7---7h9p7\-----------------------------------------|
D|-3-2-0-------0-0-----3-2-0------------------------7---------7\--------7---------7\-|
A|------------------------------------------3-2-0-------0-0-----3-2-0-------0-0------|
E|-----------------------------------------------------------------------------------|

Chorus                                                                  Repeat x4
G|---------------------------------------|---------------------------------------|
D|o--------------------------------------|o-------------------------------------o|
A|o---3-3-3-3-3-3-3-3-3-2-2-2-2-2-2------|o------7-------5---------3-----3*--5*-o|
E|----------------------------------3-2--|---0------0-0-------0------------------|
                                                                        *Not 4th time
Guitar Solo
G|----------------------------------------------------------------------------------|
D|---------7---------7\--------7---------7\--------7---------7\--------7---------7\-|
A|-3-2-0-------0-0-----3-2-0-------0-0-----3-2-0-------0-0-----3-2-0-------0-0------|
E|----------------------------------------------------------------------------------|

G|---------7---------7\------10-9-7---7h9p7\-----------------------------------------|
D|-3-2-0-------0-0-----3-2-0------------------------7---------7\--------7---------7\-|
A|------------------------------------------3-2-0-------0-0-----3-2-0-------0-0------|
E|-----------------------------------------------------------------------------------|

Chorus
G|---------------------------------------------------------------------------------|
D|------------------------------------------2-----------4-----------5-----------4--|
A|--3-3-3-3-3-3-3-3-3-2-2-2-2-2-2--------------------------------------------------|
E|--------------------------------3-2-0-----------2-----------3-----------2--------|

G|--------------------------------------------------------------------|
D|--------------------------------------------------------------------|
A|--0-----------2-----------3-----------5-----5-5-5-5-5-5-5-5-3---5---|
E|--------------------------------------------------------------------|

Outro             
G|------------------------------------------------------------------------------|
D|o----------------------------------------------------------------------------o|
A|o-------7-------5---------3-----3---5--------7-------5---------3-----3---5---o|
E|---0------0-0-------0-------------------0------0-0-------0--------------------|

G|--------------------------------------------------------------|
D|--------------------------------------------------------------|
A|-----------7-------------5-------------3-------------3---5----|
E|---0-0-0-0-------0-0-0-0-------0-0-0-0------------------------|

G|--------------------------------------------------------------|
D|--------------------------------------------------------------|
A|-----------7-------------5-------------3/15-------------------|
E|---0-0-0-0-------0-0-0-0-------0-0-0-0------------------------|

G|--------------------------------------------------------------|
D|--------------------------------------------------------------|
A|----------------3-------------2-------------3---2---0---------|
E|--------------------------------------------------------------|


| /  slide up
| \  slide down
| h  hammer-on
| p  pull-off
| ~  vibrato
| +  harmonic
| x  Mute note

===============================================================================

Please rate or comment.........
comments
We did not receive enough feedback on this tab! Please rate:
print report bad tab
1 2 3 4 5
I want to post or [tab]
guest
You may want to rate the tab now too:
select rating
Please do not post tabs as comments. Select "correction" instead!