Oops, an error
Loading. Please wait.

Sex Action Bass Tab

version 1
version 1

Whole song

Interactive

728 views 1 this week
no commentswrite comment
1 2 3 4 5
please rate
add to favorites
launch autoscroll
font size
0
reset
guitar tuner
Tab Pro tools
  • play this tab
  • loop segment
  • change instrument
  • show fretboard
  • metronome
Autoscroll
slow
fast
+/-
esc
set tempo
stop
Contributor
Difficulty
-------------------------------------------------------------------------------
                                           Sex Action - LA Guns
-------------------------------------------------------------------------------

Tabbed by: ChrisT

From the album: LA Guns (1988)

Tuning: Standard

Intro                         Repeat x4
G|-------------------------------------|
D|o-----------------------------------o|
A|o-----------------------------------o|
E|----0-0-0-0-0-0-0-0-3-3-3-2---3-2----|

Verse 1
G|---------------------------------------------------------------------|
D|---------------------------------------------------------------------|
A|-------------------------------------7-5---7-5---7-------------------|
E|---0-0-0-0-0-0-0-0-0-0-0-0-0-0-0-0-------------------7-5-3-5-3-2-3---|

G|---------------------------------------------------------------------|
D|---------------------------------------------------------------------|
A|-------------------------------------7-5---7-5---7-----------0-1-2---|
E|---0-0-0-0-0-0-0-0-0-0-0-0-0-0-0-0-------------------0-1-2-3---------|

G|---------------------------------------------------------------------|
D|---------------------------------------------------------------------|
A|---------------------------------------------------3-2-0-------------|
E|---5-5-5-5-5-5-5-5-5-5-5-5-5-5-5-5-5-5-5-5-5-5-5-5-------3-2-0-3-2---|

Chorus
G|------------------------------------|
D|o----------------------------------o|
A|o----------------------------------o|
E|---0-0-0-0-0-0-0-0-3-3-3-2---3-2----|

G|-----------------------------------------------------------------------|
D|o-----------4-5-4-----------------------------------------------------o|
A|o---5-5-5-5-------5---------2-3-2---------------------------7-5-------o|
E|--------------------3-3-3-3-------3-0-0-0-0-0-0-0-0-0-0-0-0-----7-5----|

Verse 2
G|---------------------------------------------------------------------|
D|---------------------------------------------------------------------|
A|-------------------------------------7-5---7-5---7-------------------|
E|---0-0-0-0-0-0-0-0-0-0-0-0-0-0-0-0-------------------7-5-3-5-3-2-3---|

G|---------------------------------------------------------------------|
D|---------------------------------------------------------------------|
A|-------------------------------------7-5---7-5---7-----------0-1-2---|
E|---0-0-0-0-0-0-0-0-0-0-0-0-0-0-0-0-------------------0-1-2-3---------|

G|---------------------------------------------------------------------|
D|---------------------------------------------------------------------|
A|---------------------------------------------------3-2-0-------------|
E|---5-5-5-5-5-5-5-5-5-5-5-5-5-5-5-5-5-5-5-5-5-5-5-5-------3-2-0-3-2---|

Chorus
G|------------------------------------|
D|o----------------------------------o|
A|o----------------------------------o|
E|---0-0-0-0-0-0-0-0-3-3-3-2---3-2----|

G|-----------------------------------------------------------------------|
D|o-----------4-5-4-----------------------------------------------------o|
A|o---5-5-5-5-------5---------2-3-2---------------------------7-5-------o|
E|--------------------3-3-3-3-------3-0-0-0-0-0-0-0-0-0-0-0-0-----7-5----|

Guitar Solo                   Repeat x3
G|-------------------------------------|-----------------------------------|
D|o-----------------------------------o|-----------------------------------|
A|o-----------------------------------o|-------------------------0-1-2-3---|
E|----0-0-0-0-0-0-0-0-3-3-3-2---3-2----|---0-0-0-0-0-0-0-0-1-2-3-----------|

G|---------------------------------------------------------------------|
D|---------------------------------------------------------------------|
A|---------------------------------------------------3-2-0-------------|
E|---5-5-5-5-5-5-5-5-5-5-5-5-5-5-5-5-5-5-5-5-5-5-5-5-------3-2-0-3-2---|

Chorus
G|------------------------------------|
D|o----------------------------------o|
A|o----------------------------------o|
E|---0-0-0-0-0-0-0-0-3-3-3-2---3-2----|

G|-----------------------------------------------------------------------|
D|o-----------4-5-4-----------------------------------------------------o|
A|o---5-5-5-5-------5---------2-3-2---------------------------7-5-------o|
E|--------------------3-3-3-3-------3-0-0-0-0-0-0-0-0-0-0-0-0-----7-5----|

G|---------------------------------------------------------------------|
D|---------------------------------------------------------------------|
A|---------------------------------------------------------------------|
E|---0-0-0-0-0-0-0-0-0-0-1-2-3-2-1-0-0-0-0-0-0-0-0-0-0-0-1-2-3-2-1-0---|

Verse 3
G|---------------------------------------------------------------------|
D|---------------------------------------------------------------------|
A|-------------------------------------7-5---7-5---7-------------------|
E|---0-0-0-0-0-0-0-0-0-0-0-0-0-0-0-0-------------------7-5-3-5-3-2-3---|

G|---------------------------------------------------------------------|
D|---------------------------------------------------------------------|
A|-------------------------------------7-5---7-5---7-----------0-1-2---|
E|---0-0-0-0-0-0-0-0-0-0-0-0-0-0-0-0-------------------0-1-2-3---------|

G|---------------------------------------------------------------------|
D|---------------------------------------------------------------------|
A|---------------------------------------------------3-2-0-------------|
E|---5-5-5-5-5-5-5-5-5-5-5-5-5-5-5-5-5-5-5-5-5-5-5-5-------3-2-0-3-2---|

Chorus
G|------------------------------------|
D|o----------------------------------o|
A|o----------------------------------o|
E|---0-0-0-0-0-0-0-0-3-3-3-2---3-2----|

Outro                                                          Repeat x4
G|----------------------------------------------------------------------|
D|o-----------5-4-5----------------------------------------------------o|
A|o---5-5-5-5-------5---------3-2-3---------------------------7-5------o|
E|-------------------3-3-3-3-------3-0-0-0-0-0-0-0-0-0-0-0-0-----7-5----|

                                                           Repeat to end
G|----------------------------------------------------------------------|
D|----------------------------------------------------------------------|
A|-------7-7-----7-7-----7-7-----7-7-----7-7-----7-7-----7-7-----7-7----|
E|---0-0-----0-0-----0-0-----0-0-----0-0-----0-0-----0-0-----0-0--------|


| /  slide up
| \  slide down
| h  hammer-on
| p  pull-off
| ~  vibrato
| +  harmonic
| x  Mute note
===============================================================================

Please rate or comment.......
comments
We did not receive enough feedback on this tab! Please rate:
print report bad tab
1 2 3 4 5
I want to post or [tab]
guest
You may want to rate the tab now too:
select rating
Please do not post tabs as comments. Select "correction" instead!