Oops, an error
Loading. Please wait.

Skin Bass Tab

170 views 3 this week
no commentswrite comment
1 2 3 4 5
please rate
add to favorites
launch autoscroll
font size
0
reset
guitar tuner
Tab Pro tools
  • play this tab
  • loop segment
  • change instrument
  • show fretboard
  • metronome
×
Best way to learn
"Skin"
Autoscroll
slow
fast
+/-
esc
set tempo
stop
Contributor
Difficulty
intermediate
Artist:L.A. Guns
Song:Skin
Album:Tales From The Strip
Bassist:Adam Hamilton
Tabber:Dev Fuld

This is such an excellent song. It also sounds good when everything except 
the chorus' and solo are slapped.

Key:
/ = slide up

Intro
G:---------------|---------------|---------------|----------------------|
D:---------------|---------------|---------------|----------------------|
A:---------------|---------------|---------------|-------------------5-7|
E:0--3-3-3-0--3--|0--3-3-3-0--3--|0--3-3-3-0--3--|0--3-3-3-0--3--5-7----|

G:---------------|--------------------|
D:---------------|--------------------|
A:---------------|---------------4-5-6|
E:0--3-3-3-0--3--|0--3-3-3-0--3-------|

Verse
G:---------------|---------------|---------------|---------------|
D:---------------|---------------|---------------|---------------|
A:---------------|---------------|---------------|---------------|
E:0--3-3-3-0--3--|0--3-3-3-0--3--|0--3-3-3-0--3--|0--3-3-3-0--3--|

Chorus
G:-------------------------------|---------------|---------------|
D:-------------------------------|---------------|---------------|
A:-------------------------------|---------------|---------------|
E:5-5-5-5-5-5-5-5-5-5-5-5-5-5-5-5|0--3-3-3-0--3--|0--3-3-3-0--3--|

Verse 2
G:---------------|----------------------|---------------|---------------|
D:---------------|----------------------|---------------|---------------|
A:---------------|-------------------5-7|---------------|---------------|
E:0--3-3-3-0--3--|0--3-3-3-0--3--5-7----|0--3-3-3-0--3--|0--3-3-3-0--3--|

Chorus 2
G:-------------------------------|--------------------|-------------------|
D:-------------------------------|--------------------|-------------------|
A:-------------------------------|--------------------|-------------------|
E:5-5-5-5-5-5-5-5-5-5-5-5-5-5-5-5|0----0----0----0----|0--3-0-3--0-5-3-5-3|

G:-------------------|-------------------|-------------------|
D:-------------------|-------------------|-------------------|
A:-------------------|-------------------|-------------------|
E:0--3-0-3--0-5-3-5-3|0--3-0-3--0-5-3-5-3|0--3-0-3--0-5-3-5-3|

Solo
G:---------------------------------------------------------------|
D:---------------------------------------------------------------|
A:---------------------------------------------------------------|
E:5-5-5-5-5-5-5-5-5-5-5-5-5-5-3-4-5-5-5-5-5-5-5-5-5-5-5-5-5-5-5-6|

G:-----------------------------------------------------------------------|
D:-----------------------------------------------------------------------|
A:-----------------------------------------------------------------------|
E:7-7-7-7-7-7-7-7-7-7-7-7-7-7-5-6-7-7-7-7-7-7-7-7/19-19-19-19-19-19-19-19|

After Solo
G:--------------------|--------------------|--------------------|--------------------|
D:--------------------|--------------------|--------------------|--------------------|
A:--------------------|--------------------|--------------------|--------------------|
E:0--3-0-3--0--3-0-3--|0--3-0-3--0--3-0-3--|0--3-0-3--0--3-0-3--|0--3-0-3--0--3-0-3--|

Chorus 3
G:-------------------------------|-|R|-------------------|-------------------|
D:-------------------------------|-|E|-------------------|-------------------|
A:-------------------------------|-|S|-------------------|-------------------|
E:5-5-5-5-5-5-5-5-5-5-5-5-5-5-5-5|0|T|0--3-0-3--0-5-3-5-3|0--3-0-3--0-5-3-5-3|

G:-------------------|-------------------|
D:-------------------|-------------------|
A:-------------------|-------------------|
E:0--3-0-3--0-5-3-5-3|0--3-0-3--0-5-3-5-3|

End (Repeat through fade out)
G:---------------------|---------------------|---------------------|
D:---------------------|---------------------|---------------------|
A:--------------------2|--------------------2|--------------------2|
E:0--3-0-3--0-5-3-5-3--|0--3-0-3--0-5-3-5-3--|0--3-0-3--0-5-3-5-3--|

That's it. This song kicks ass. And remember, it sounds good when some parts 
are slapped. If you like this, e-mail me and I'll tab my advanced version. 
I've already put it in order for you. Any questions or comments, e-mail me 
at rocklvson@yahoo.com

comments
We did not receive enough feedback on this tab! Please rate:
print report bad tab
1 2 3 4 5
I want to post or [tab]
guest
You may want to rate the tab now too:
select rating
Please do not post tabs as comments. Select "correction" instead!