Oops, an error
Loading. Please wait.

The Ballad Of Jayne tab

version 1
version 1

Whole song

Interactive

16,299 views 33 this week
4 commentsread comments
1 2 3 4 5
x 5
add to favorites
×
Save as Personal and add changes to this tab that will be seen only by you. Learn more ›
×
You can save this tab as Personal to edit and correct it or add notes. All changes will be seen only by you. Learn more »
launch autoscroll
font size
0
reset
how to read this tab
guitar tuner
backing track
0:00
0:00
edit
Autoscroll
slow
fast
+/-
esc
set tempo
stop
Author
Band:L.A. Guns
Song:The Ballad of Jayne
From:Cocked and Loaded(released in 1988)
Guitars: 1 acoustic, 1 electric(I'll tab that later, it's much harder to figure out)

----------------------------------------------------------------------------
r before a chord name means to roll the chord slightly
^  Hit-on/Pull-off
/  Slide
b  Bend
_  Let Note Ring
On Acoustic, down a half-step(D#,G#,C#,F#,A#,D#) it sounds best with a 12-string, but
it works with a 6-string.

Intro                            
   D      C D     C D     C       
E |-------0-------0-------0-----||-----3------------------3----------0|
B |----3--1----3--1----3--1-1^0-||-----3--------1^0-------3-------3--1|
G |-----0-0-----0-0-----0-0----0||---0--0-----0----0----0--0-------0-0|
D |-------2-------2-------2-----||--0----0---2-2-------0----0--------2|
A |3/5----3-3/5---3-3/5---3-----||-2------2-3---------2------2-3/5---3|
E |-----------------------------||3------------------3----------------|

Verse         
   G         C        G
E |-----3------------------3----------0---|
B |-----3--------1^0-------3-------3--1^0-|
G |---0--0-----0----0----0--0-------0-0--0|
D |--0----0---2-2-------0----0--------2---|
A |-2------2-3---------2------2-3/5---3---|
E |3------------------3-------------------|
1: She    was always something special
   That   diamond shinin bright in the rain
   Everybody dreams of angels
Pre-Chorus
   D              C
E |----2-------2-------0------0--|
B |---3-3-----3-3-----1-1----1-1-|
G |--2---2---2---2---2---2--2---2|
D |-0-------0-------0------0-----|
A |0-------0-------3------3------|
E |------------------------------|
No one will ever know how much I loved you so
Chorus
E |-3--3-----3--3---|
B |--3--3-3---3--3-3|
G |---0--0-----0--0-|
D |-----------------|
A |---------3-------|
E |3----------------|
Now it all seems funny kinda like a dream
Things aint always what they seem
What a Shame
what happened to Jayne
Post Chorus
   D                    D     C D     C D     C
E |---3-2-------3-2---2_------0-------0-------0---|
B |------3---------3--3_---3--1----3--1----3--1^0-|
G |-------2---------2-2_----0-2-----0-2-----0-2--0|
D |0---------0----------------0-------0-------0---|
A |---------------------3/5---3-3/5---3-3/5---3---|
E |-----------------------------------------------|


Structure:
Intro
Verse
Pre-Chorus
Chorus
Post-Chorus
Verse
Pre-Chorus
Chorus
Post-Chorus
Solo(acoustic goes through verse, pre-chorus-chorus)
Intro
Verse
Chorus
Post-Chorus
Chorus

            
            
Suggest correction
Creating personal tab
Creating personal tab
You can edit any tab online and save it as your Personal.

You can edit, replace or remove any tab part or add personal notes – all changes will be seen only by you.

Personal tabs can be accessed anytime from any device, even offline.
Learn more »
comments
print report bad tab
4 comments total. Showing first comments.
+1 reply
ibanez-gnr14 15 May 14, 2006 01:30 PM

ITS UPSIDE DOWN!!!!!

0 reply
Hawkeye_12 20 Apr 11, 2007 06:29 AM

Its confusing, dude, why'd you put it wrong way up?

0 reply
blight76 10 Oct 20, 2012 01:23 PM

WTF dude have you ever seen how tab is wrote, flip it over

guest
You may want to rate the tab now too:
select rating
Wanna post a correction for this tab? Suggest correction