Oops, an error
Loading. Please wait.

Tu Eterno Enamorado tab

128 views 1 this week
no commentswrite comment
1 2 3 4 5
3 more votes to show rating
add to favorites
×
Save as Personal and add changes to this tab that will be seen only by you. Learn more ›
×
You can save this tab as Personal to edit and correct it or add notes. All changes will be seen only by you. Learn more »
launch autoscroll
font size
0
reset
how to read this tab
guitar tuner
edit
Autoscroll
slow
fast
+/-
esc
set tempo
stop
Prestar mucha atención a la grabación original para reproducir
con fidelidad los punteos.


E|--4--5*4------------------|
B|--------5*7--5*4--4--5-2--|
G|--------------------------|
D|------------------4--6-2--|
A|--------------------------|
E|--------------------------|

E|--------------------------|
B|--2-4-5-----4*5-----------|
G|--------4-------3---------|
D|--------------------------|
A|--------------------------|
E|--------------------------|

E|-----------4-5-5*7--------|
B|--4-5-5*7-----------------|
G|--------------------------|
D|--------------------------|
A|--------------------------|
E|--------------------------|


                   MI 
Yo no sé porqué te amo
       SOL#m          DO#m
si ya tienes quién te da el amor,
                  RE 
y no sé porqué te llamo
      MI         LA 
si respondes al oír su voz.
                     SOL#m
Yo no sé porqué te espero
                DO#m
como el día al amanecer,
                      LA 
si te entregas a un lucero
     FA#m             SI 
compañía que no puedo ser.


Yo no sé porqué mis horas
se detienen a pensar en ti,
si tu tiempo se demora
y se enciende muy lejos de mi.
Yo no sé porqué tus besos
me provocan hasta la ilusión,
si tus labios viven presos
de otros labios de otro corazón.


                   MI 
Yo no sé porqué imagino
       SOL#m       DO#m
que me pides te rescate,
                       LA 
y te arranque de un suspiro
       FA#m         SI 
de sus brazos para amarte.

Yo no sé porque deliro
que tu anhelas ese día,
que una falla del destino
no me deja hacerte mía.


                     LA 
Yo no sé porqué te espero
        SOL#m      DO#m
si eres feliz a su lado,
                   LA 
no será que yo prefiero
        SI          MI 
ser tu eterno enamorado.


E|--2*4--5*4--------------4---7*9-|
B|-----------5*7--5*4-5-7---5-----|
G|--------------------------------|
D|--------------------------------|
A|--------------------------------|
E|--------------------------------|

E|--9-11-12-7--5-4-5----------5*4-----|
B|----------------------5-7*9-----5*7-|
G|--------------------6---------------|
D|------------------------------------|
A|------------------------------------|
E|------------------------------------|


                    MI 
Yo no sé porqué te sueño
           SOL#m     DO#m
entre mis brazos al anochecer,
                    RE 
si no puedo ser el dueño
       MI                LA 
de un ocaso que me ve perder.
                     SOL#m
Yo no sé porqué me alcanzan
                DO#m
los deseos de tener tu piel,
                   LA 
si se apaga mi esperanza
       FA#m       SI 
cuando veo que te vas con él.


Yo no sé porqué imagino...


Algunos acordes talvez no entren con la melodía,
si alguno los puede corregir se los agradeceré un montón
pero la mayoría están bien. Suerte!!!

            
            
Suggest correction
Creating personal tab
Creating personal tab
You can edit any tab online and save it as your Personal.

You can edit, replace or remove any tab part or add personal notes – all changes will be seen only by you.

Personal tabs can be accessed anytime from any device, even offline.
Learn more »
Give kudos to tab author, rate the tab!
1 2 3 4 5
comments
print report bad tab
guest
Wanna post a correction for this tab? Suggest correction