Oops, an error
Loading. Please wait.

Dificil E Imposible tab

8 views 1 this week
no commentswrite comment
1 2 3 4 5
3 more votes to show rating
add to favorites
×
Save as Personal and add changes to this tab that will be seen only by you. Learn more ›
×
You can save this tab as Personal to edit and correct it or add notes. All changes will be seen only by you. Learn more »
launch autoscroll
font size
0
reset
how to read this tab
guitar tuner
edit
Autoscroll
slow
fast
+/-
esc
set tempo
stop
La Carroza Plastica
Dificil e Imposible

Esta cancion la escuxe por primera vez en una reu
n kza d laz gemelaz zaluoz pra eiaz xD

[Intro]

G|---------------------|---------------------|
D|---------------------|---------------------|
A|-5-5-5---------------|-5-5-5---------------| <--- Bajo
E|-------7---7-7-7-7-7-|-------3---3-3-3-3-3-|

E|---------------------|---------------------|
B|---------------------|---------------------|
G|-7-7-7---------------|-7-7-7---------------|
D|-7-7-7-9---9-9-9-9-9-|-7-7-7-5--5-5-5-5-5--| <--- Guitarra [x2]
A|-5-5-5-9---9-9-9-9-9-|-5-5-5-5--5-5-5-5-5--|
E|-------7---7-7-7-7-7-|-------3--3-3-3-3-3--|

[Verso 1]

E|---------------------|---------------------|
B|---------------------|---------------------|
G|---------------------|-7-7-7---------------|
D|-7-7-7-9---9-9-9-9-9-|-7-7-7-5---5-5-5-5-5-| [x4]
A|-7-7-7-9---9-9-9-9-9-|-5-5-5-5---5-5-5-5-5-|
E|-5-5-5-7---7-7-7-7-7-|-------3---3-3-3-3-3-|

E|-------|
B|-------|
G|-------|
D|-7-7-7-|
A|-7-7-7-|
E|-5-5-5-|

[Coro]

E|---------------------|---------------------|
B|---------------------|---------------------|
G|-7-7-7-7-7-7-7-7-7-7-|---------------------|
D|-7-7-7-7-7-7-7-7-7-7-|-5-5-5-5-5-5-5-5-5-5-| [x2]
A|-5-5-5-5-5-5-5-5-5-5-|-5-5-5-5-5-5-5-5-5-5-|
E|---------------------|-3-3-3-3-3-3-3-3-3-3-|

E|---------------------|
B|---------------------|
G|---------------------| [x4]
D|-7-7-7-9---9-9-9-9-9-|
A|-7-7-7-9---9-9-9-9-9-|
E|-5-5-5-7---7-7-7-7-7-|

[Verso 2]

E|---------------------|---------------------|
B|---------------------|---------------------|
G|---------------------|-7-7-7---------------|
D|-7-7-7-9---9-9-9-9-9-|-7-7-7-5---5-5-5-5-5-| [x4]
A|-7-7-7-9---9-9-9-9-9-|-5-5-5-5---5-5-5-5-5-|
E|-5-5-5-7---7-7-7-7-7-|-------3---3-3-3-3-3-|

E|-------|
B|-------|
G|-------|
D|-7-7-7-|
A|-7-7-7-|
E|-5-5-5-|

[Coro 2]

E|---------------------|---------------------|
B|---------------------|---------------------|
G|-7-7-7-7-7-7-7-7-7-7-|---------------------|
D|-7-7-7-7-7-7-7-7-7-7-|-5-5-5-5-5-5-5-5-5-5-| [x2]
A|-5-5-5-5-5-5-5-5-5-5-|-5-5-5-5-5-5-5-5-5-5-|
E|---------------------|-3-3-3-3-3-3-3-3-3-3-|

[Interdulio 1ra Guitarra]

E|-------------------------------------------------|
B|-------------------------------------------------|
G|-14-14-14-14-14-14-14-14-12-12-12-12-12-11-11-11-|
D|--x--x--x--x--x--x--x--x--x--x--x--x--x--x--x--x-|
A|-12-12-12-12-12-12-12-12-10-10-10-10-10--9--9--9-|
E|-------------------------------------------------|

E|-------------------------------------------------------|
B|-------------------------------------------------------|
G|-14-14-14-14-14-14-14-14-12-12-12-12-12-11-11-11-9-9-9-|
D|--x--x--x--x--x--x--x--x--x--x--x--x--x--x--x--x-x-x-x-|
A|-12-12-12-12-12-12-12-12-10-10-10-10-10--9--9--9-7-7-7-|
E|-------------------------------------------------------|

E|-------------------------------------------------|
B|-------------------------------------------------|
G|-14-14-14-14-14-14-14-14-12-12-12-12-12-11-11-11-|
D|--x--x--x--x--x--x--x--x--x--x--x--x--x--x--x--x-|
A|-12-12-12-12-12-12-12-12-10-10-10-10-10--9--9--9-|
E|-------------------------------------------------|

E|-------------------------------------------------------|
B|-------------------------------------------------------|
G|-14-14-14-14-14-14-14-14-12-12-12-12-12-11-11-11-9-9-9-|
D|--x--x--x--x--x--x--x--x--x--x--x--x--x--x--x--x-x-x-x-|
A|-12-12-12-12-12-12-12-12-10-10-10-10-10--9--9--9-7-7-7-|
E|-------------------------------------------------------|

[Interdulio 2da Guitarra]

E|---------------------|---------------------|
B|---------------------|---------------------|
G|-7-7-7-7-7-7-7-7-7-7-|---------------------|
D|-7-7-7-7-7-7-7-7-7-7-|-5-5-5-5-5-5-5-5-5-5-| [x4]
A|-5-5-5-5-5-5-5-5-5-5-|-5-5-5-5-5-5-5-5-5-5-|
E|---------------------|-3-3-3-3-3-3-3-3-3-3-|

[Verso 3]

E|---------------------|---------------------|
B|---------------------|---------------------|
G|---------------------|-7-7-7---------------|
D|-7-7-7-9---9-9-9-9-9-|-7-7-7-5---5-5-5-5-5-| [x4]
A|-7-7-7-9---9-9-9-9-9-|-5-5-5-5---5-5-5-5-5-|
E|-5-5-5-7---7-7-7-7-7-|-------3---3-3-3-3-3-|

E|-------|
B|-------|
G|-------|
D|-7-7-7-|
A|-7-7-7-|
E|-5-5-5-|

[Coro]

E|---------------------|---------------------|
B|---------------------|---------------------|
G|-7-7-7-7-7-7-7-7-7-7-|---------------------|
D|-7-7-7-7-7-7-7-7-7-7-|-5-5-5-5-5-5-5-5-5-5-| [x2]
A|-5-5-5-5-5-5-5-5-5-5-|-5-5-5-5-5-5-5-5-5-5-|
E|---------------------|-3-3-3-3-3-3-3-3-3-3-|

[Outro 1era Guitarra]

E|-------------------------------------------------|
B|-------------------------------------------------|
G|-14-14-14-14-14-14-14-14-12-12-12-12-12-11-11-11-|
D|--x--x--x--x--x--x--x--x--x--x--x--x--x--x--x--x-|
A|-12-12-12-12-12-12-12-12-10-10-10-10-10--9--9--9-|
E|-------------------------------------------------|

E|-------------------------------------------------------|
B|-------------------------------------------------------|
G|-14-14-14-14-14-14-14-14-12-12-12-12-12-11-11-11-9-9-9-|
D|--x--x--x--x--x--x--x--x--x--x--x--x--x--x--x--x-x-x-x-|
A|-12-12-12-12-12-12-12-12-10-10-10-10-10--9--9--9-7-7-7-|
E|-------------------------------------------------------|

[Outro 2da Guitarra]

E|---------------------|---------------------|
B|---------------------|---------------------|
G|-7-7-7-7-7-7-7-7-7-7-|---------------------|
D|-7-7-7-7-7-7-7-7-7-7-|-5-5-5-5-5-5-5-5-5-5-| [x2]
A|-5-5-5-5-5-5-5-5-5-5-|-5-5-5-5-5-5-5-5-5-5-|
E|---------------------|-3-3-3-3-3-3-3-3-3-3-|

[Final]

E|---------------------|
B|---------------------|
G|---------------------| [x4]
D|-7-7-7-9---9-9-9-9-9-|
A|-7-7-7-9---9-9-9-9-9-|
E|-5-5-5-7---7-7-7-7-7-|

----------------------------LETRA----------------------------

Es Triste que veas la vida
primero que yo
y que tengas frio y yo calor
las horas diferencian lo imposible
resume que estamos cerca

condiciones agradables
me retrata a la conversacion
es mas que un hecho y te das cuenta
que estoy perdiendo lo que tengo

.....
del gusto al afecto
y que queda despues del cariño
por que la realidad es una
soy un niño perdido y tu laberinto

condiciones agradables
me retrata a la conversacion
es mas que un hecho y te das cuenta
que estoy perdiendo lo que tengo

y si dice el miedo
es el primer de la historia
el impulso es vencido por la impotencia
estoy tan solo
estoy tan solo
estoy tan solo

condiciones agradables
me retrata a la conversacion
es mas que un hecho y te das cuenta
que estoy perdiendo lo que tengo

estoy tan solo
estoy tan solo
estoy tan solo

______________________________________________________________________

spectro_punk5@

alaoz!

            
            
Suggest correction
Creating personal tab
Creating personal tab
You can edit any tab online and save it as your Personal.

You can edit, replace or remove any tab part or add personal notes – all changes will be seen only by you.

Personal tabs can be accessed anytime from any device, even offline.
Learn more »
Give kudos to tab author, rate the tab!
1 2 3 4 5
comments
print report bad tab
guest
Wanna post a correction for this tab? Suggest correction