Oops, an error
Loading. Please wait.

Por Si Alguna Vez Te Vas tab

37 views 1 this week
no commentswrite comment
1 2 3 4 5
3 more votes to show rating
add to favorites
×
Save as Personal and add changes to this tab that will be seen only by you. Learn more ›
×
You can save this tab as Personal to edit and correct it or add notes. All changes will be seen only by you. Learn more »
launch autoscroll
font size
0
reset
how to read this tab
guitar tuner
edit
Autoscroll
slow
fast
+/-
esc
set tempo
stop
esta cancion es preciosa, aqui esta la tablatura de ls arpegios de acústica
más abajo después de la tablatura esta en acordes, si no salen los arpegios
en ritmo de rumba queda bastante bien

espero qeu os guste


  Em      Bm                          Em      Bm
e|------0--2-------|-2-------2-------|------0--2-------|-2-------2-------|
B|----0--0----3----|------3----------|----0--0----3----|------3----3--3--|
G|---0----------4--|----4--4---4-----|---0----------4--|----4--4-----4---|
D|-----------4---4-|---4------4--4p0-|--2--------4---4-|---4-------------|
A|-----------------|-----------------|-----------------|-----------------|
E|-0---------------|-----------------|-0---------------|-----------------|


  Em      Bm                          Em       Bm
e|------0--2-------|-2----2--3-------|----0---------2--|---------2-------|
B|----0--0----3----|----3--3----3----|---0--0-----3--3-|------3----------|
G|---0----------4--|---4-------4--4--|--0----0---4-----|----4--4---------|
D|-----------4---4-|---------------4-|----------4------|---4-------------|
A|-----------------|-----------------|---------2-------|-2---------------|
E|-0---------------|-----------------|-0---------------|-----------------|


  G                                   E                 Am
e|---------3-------|---------3-------|---------0-------|---------0-------|
B|------3-----3----|------3----------|---------0-------|------1-----1----|
G|----0--0------0--|----0--0---------|---------1-------|----2--2------2--|
D|---0-------0---0-|---0-------------|---------2-------|---2-------2---2-|
A|-----------------|-----------------|---------2-------|-0---------------|
E|-3---------------|-3-----------3-2-|-0-------0-------|-----------------|
                                         Romperé el despertador

  D                 Bm                Em                Am
e|---------2-------|---------2-------|---------0-------|---------0-------|
B|------3-----3----|------3-----3----|-----0------0----|------1-----1----|
G|----2--2------2--|----4--4------4--|---0--0-------0--|----2--2------2--|
D|---0-------0---0-|---4-------4---4-|--2--------2---2-|---2-------2---2-|
A|-0---------------|-2---------------|-----------------|-0---------------|
E|-----------------|-----------------|-0---------------|-----------------|
  SI mañana vuelve A sonar.           Aunque poco va a arreglar se que te

  F#7               B7
e|---------2-------|---------2-------|---------2-------|
B|------2-----2----|------0-----0----|------0----------|
G|----3--3------3--|----2--2------2--|----2--2---------|
D|---2-------2---2-|---1-------1---1-|---1-------------|
A|-----------------|-2---------------|-2---------------|
E|-2---------------|-----------------|-----------------|
  va a hacaer reir que lo intente al despertar.


  E                 Am                D                 Bm
e|---------0-------|---------0-------|---------2-------|---------2-------|
B|------0-----0----|------1-----1----|------3-----3----|------3-----3----|
G|----1--1------1--|----2--2------2--|----2--2------2--|----4--4------4--|
D|---2------2----2-|---2-------2---2-|---0-------0---0-|---4-------4---4-|
A|-----------------|-0---------------|-0---------------|-2---------------|
E|-0---------------|-----------------|-----------------|-----------------|
  Porque todo lo demás (qué más da) si aún te puedo abrazar (sin parar)

  Em                Am                Cm                Bm
e|---------0-------|---------0-------|---------3-------|---------2-------|
B|------0-----0----|------1-----1----|------4-----4----|------3-----3----|
G|----0--0------0--|----2--2------2--|----5--5------5--|----4--4------4--|
D|---2-------2---2-|---2-------2---2-|---5-------5---5-|---4-------4---4-|
A|-----------------|-0---------------|-3---------------|-2---------------|
E|-0---------------|-----------------|-----------------|-----------------|
  Si aún podemos esperar, exprimir más nuestro amor cada tarde al pasear...

  Am
e|---------0-------|---------0-------|
B|------1-----1----|------1----------|
G|----2--2------2--|----2--2---------|
D|---2-------2---2-|---2-------------|
A|-0---------------|-0---------------|
E|-----------------|-----------------|

  G                 Bm                Am                C       Cm
e|---------3-------|---------2-------|---------0-------|---------3-------|
B|------3-----3----|------3-----3----|------1-----1----|------5-----4----|
G|----0--0------0--|----4--4------4--|----2--2------2--|----5--5------5--|
D|---0-------0---0-|---4-------4---4-|---2-------2---2-|---5-------5---5-|
A|-----------------|-2---------------|-0---------------|-3---------------|
E|-3---------------|-----------------|-----------------|-----------------|
  Guardaré algo de querer por si alguna vez te vas.
  Haré ver que está aquí y que cada vez me quieres más.

  D       B         Em                Am                C          D
e|---------2-------|-------0-------0-|---------0-------|---------0-------|
B|------3-----4----|------0-------0--|------1-----1----|------1-----3----|
G|----2--2------4--|----0-------0----|----2--2------2--|----0--0------2--|
D|---0-------4---4-|---2-------2-----|---2-------2---2-|---2-------0---0-|
A|-0---------------|-----------------|-0---------------|-3---------------|
E|-----------------|-0-------0-------|-----------------|-----------------|
  Hoy te quiero agradecer que no te canses de mi retorcida forma de ser.

  G                 Bm                Am                C       Cm
e|---------3-------|---------2-------|---------0-------|---------3-------|
B|------3-----3----|------3-----3----|------1-----1----|------5-----4----|
G|----0--0------0--|----4--4------4--|----2--2------2--|----5--5------5--|
D|---0-------0---0-|---4-------4---4-|---2-------2---2-|---5-------5---5-|
A|-----------------|-2---------------|-0---------------|-3---------------|
E|-3---------------|-----------------|-----------------|-----------------|
  Y vamos a aprovechar que esta tarde brilla el sol.
  Por si el lunes cambia el tiempo y con él cambia nuestro amor.

  D       B         Em                Am                C          D
e|---------2-------|-------0-------0-|---------0-------|---------0-------|
B|------3-----4----|------0-------0--|------1-----1----|------1-----3----|
G|----2--2------4--|----0-------0----|----2--2------2--|----0--0------2--|
D|---0-------4---4-|---2-------2-----|---2-------2---2-|---2-------0---0-|
A|-0---------------|-----------------|-0---------------|-3---------------|
E|-----------------|-0-------0-------|-----------------|-----------------|
  Voy a fotografiar cada detalle en mi corazón.

  Em
e|---------3-------|---------3-------|---------3-------|---------3-------|
B|------3-----3----|------3-----3----|------3-----3----|------3----------|
G|----0--0------0--|----0--0------0--|----0--0------0--|----0--0---------|
D|---0-------0---0-|---0-------0---0-|---0-------0---0-|---0-------------|
A|-----------------|-----------------|-----------------|-----------------|
E|-3---------------|-3---------------|-3---------------|-3---------------|

  G                                   E                Am
e|---------3-------|---------3-------|---------0-------|---------0-------|
B|------3-----3----|------3----------|---------0-------|------1-----1----|
G|----0--0------0--|----0--0---------|---------1-------|----2--2------2--|
D|---0-------0---0-|---0-------------|---------2-------|---2-------2---2-|
A|-----------------|-----------------|---------2-------|-0---------------|
E|-3---------------|-3-----------3-2-|-0-------0-------|-----------------|
                                      Y es que recuerdos siempre habrá

  D                 Bm                Em                Am
e|---------2-------|---------2-------|---------0-------|---------0-------|
B|------3-----2----|------3-----3----|------0-----0----|------1-----1----|
G|----2--2------3--|----4--4------4--|----0--0------0--|----2--2------2--|
D|---0-------0---0-|---4-------4---4-|---2-------2---2-|---2-------2---2-|
A|-0---------------|-2---------------|-----------------|-0---------------|
E|-----------------|-----------------|-0---------------|-----------------|
  pero no valen para nada más.              Que para establecer ratios de

  F#7               B7
e|---------2-------|---------2-------|---------2-------|
B|------2-----2----|------0-----0----|------0----------|
G|----3--2------3--|----2--2------2--|----2--2---------|
D|---2-------2---2-|---1-------1---1-|---1-------------|
A|-----------------|-2---------------|-2---------------|
E|-2---------------|-----------------|-----------------|
  felicidad y poderlos comparar.

  E                 Am                D                 Bm
e|---------0-------|---------0-------|---------2-------|---------2-------|
B|------0-----0----|------1-----1----|------3-----3----|------3-----3----|
G|----1--1------1--|----2--2------2--|----2--2------2--|----4--4------4--|
D|---2------2----2-|---2-------2---2-|---0-------0---0-|---4-------4---4-|
A|-----------------|-0---------------|-0---------------|-2---------------|
E|-0---------------|-----------------|-----------------|-----------------|

  Em                Am                Cm                Bm
e|---------0-------|---------0-------|---------3-------|---------2-------|
B|------0-----0----|------1-----1----|------4-----4----|------3-----3----|
G|----0--0------0--|----2--2------2--|----5--5------5--|----4--4------4--|
D|---2-------2---2-|---2-------2---2-|---5-------5---5-|---4-------4---4-|
A|-----------------|-0---------------|-3---------------|-2---------------|
E|-0---------------|-----------------|-----------------|-----------------|

  Am
e|---------0-------|---------0-------|
B|------1-----1----|------1----------|
G|----2--2------2--|----2--2---------|
D|---2-------2---2-|---2-------------|
A|-0---------------|-0---------------|
E|-----------------|-----------------|

  G                 Bm                Am                C       Cm
e|---------3-------|---------2-------|---------0-------|---------3-------|
B|------3-----3----|------3-----3----|------1-----1----|------5-----4----|
G|----0--0------0--|----4--4------4--|----2--2------2--|----5--5------5--|
D|---0-------0---0-|---4-------4---4-|---2-------2---2-|---5-------5---5-|
A|-----------------|-2---------------|-0---------------|-3---------------|
E|-3---------------|-----------------|-----------------|-----------------|
  Guardaré algo de querer por si alguna vez te vas.
  Haré ver que está aquí y que cada vez me quieres más.

  D       B         Em                Am                C          D
e|---------2-------|-------0-------0-|---------0-------|---------0-------|
B|------3-----4----|------0-------0--|------1-----1----|------1-----3----|
G|----2--2------4--|----0-------0----|----2--2------2--|----0--0------2--|
D|---0-------4---4-|---2-------2-----|---2-------2---2-|---2-------0---0-|
A|-0---------------|-----------------|-0---------------|-3---------------|
E|-----------------|-0-------0-------|-----------------|-----------------|
  Hoy te quiero agradecer que no te canses de mi retorcida forma de ser.

  G                 Bm                Am                C       Cm
e|---------3-------|---------2-------|---------0-------|---------3-------|
B|------3-----3----|------3-----3----|------1-----1----|------5-----4----|
G|----0--0------0--|----4--4------4--|----2--2------2--|----5--5------5--|
D|---0-------0---0-|---4-------4---4-|---2-------2---2-|---5-------5---5-|
A|-----------------|-2---------------|-0---------------|-3---------------|
E|-3---------------|-----------------|-----------------|-----------------|
  Y vamos a aprovechar que esta tarde brilla el sol.
  Por si el lunes cambia el tiempo y con él cambia nuestro amor.

  D       B         Em                Am                C          D
e|---------2-------|-------0-------0-|---------0-------|---------0-------|
B|------3-----4----|------0-------0--|------1-----1----|------1-----3----|
G|----2--2------4--|----0-------0----|----2--2------2--|----0--0------2--|
D|---0-------4---4-|---2-------2-----|---2-------2---2-|---2-------0---0-|
A|-0---------------|-----------------|-0---------------|-3---------------|
E|-----------------|-0-------0-------|-----------------|-----------------|
  Voy a fotografiar cada detalle en mi corazón.

  A                 C#m           A   Bm                D       Dm
e|---------0-------|---------4-------|---------2-------|---------5-------|
B|------2-----2----|------5-----5----|------3-----3----|------7-----6----|
G|----2--2------2--|----6--6------6--|----4--4------4--|----7--7------7--|
D|---2-------2---2-|---6-------6---7-|---4-------4---4-|---7-------7---7-|
A|-0---------------|-4---------------|-2---------------|-5---------------|
E|-----------------|-----------------|-----------------|-----------------|
  Vamos a querernos mas y a cuidarnos sin parar.
  Pues aun quedan muchos años para la inmortalidad.

  E       C#        F#m               Bm                D        E
e|---------4-------|-------2-------2-|---------2-------|---------0-------|
B|------5-----6----|------2-------2--|------3-----3----|------3-----0----|
G|----4--4------6--|----2-------2----|----4--4------4--|----2--2------0--|
D|---2-------6---6-|---4-------4-----|---4-------4---4-|---0-------1---1-|
A|-2---------------|-----------------|-2---------------|-0---------------|
E|-----------------|-2-------2-------|-----------------|-----------------|
  Asi que vamos a comer, hay cena preparada en la sartén.

  A                 C#m           A   Bm                D       Dm
e|---------0-------|---------4-------|---------2-------|---------5-------|
B|------2-----2----|------5-----5----|------3-----3----|------7-----6----|
G|----2--2------2--|----6--6------6--|----4--4------4--|----7--7------7--|
D|---2-------2---2-|---6-------6---7-|---4-------4---4-|---7-------7---7-|
A|-0---------------|-4---------------|-2---------------|-5---------------|
E|-----------------|-----------------|-----------------|-----------------|
  Pues no me canso del color de tu carita al despertar,
  de tus discursos por la noche, de tus bromas,

  E       C#        F#m               Bm                D        E
e|---------4-------|-------2-------2-|---------2-------|---------0-------|
B|------5-----6----|------2-------2--|------3-----3----|------3-----0----|
G|----4--4------6--|----2-------2----|----4--4------4--|----2--2------0--|
D|---2-------6---6-|---4-------4-----|---4-------4---4-|---0-------1---1-|
A|-2---------------|-----------------|-2---------------|-0---------------|
E|-----------------|-2-------2-------|-----------------|-----------------|
  de contar todas las cosas que hay que hacer
  hasta que el tiempo quiera respirar.

  A
e|-0~~~~~~~~~~~~~~-|
B|-2~~~~~~~~~~~~~~-|
G|-2~~~~~~~~~~~~~~-|
D|-2~~~~~~~~~~~~~~-|
A|-0~~~~~~~~~~~~~~-|
E|-----------------|

Em Bm Em Bm Em Bm Em Bm Em

Em                 Am
Romperé el despertador
D                    Bm
si mañana vuelve a sonar.
Em                    Am
Aunque poco va a arreglar
                       F#7
sé que te va a hacer reir
                        B7
que lo intente al despertar.

E                  Am        D
Porque todo lo demás(Qué más da)
                    Bm         Em
si aun te puedo abrazar(Sin parar),
                   Am
si aun podemos esperar
                      Cm  Bm
exprimir más nuestro amor
                  Am
cada tarde al pasear.

G                   Bm
Guardaré algo de querer
                     Am
por si alguna vez te vas.
                   C
Haré ver que está aquí
           Cm             D
y que cada vez me quieres más.
       B            G
Hoy te quiero agradecer
          Em           Am                 C    D
que no te canses de mi retorcida forma de ser.

G               Bm
Y vamos a aprovechar
                         Am
que esta tarde brilla el sol.
                          C
Por si el lunes cambia el tiempo
         Cm              D
y con él cambia nuestro amor.
      B        G
Voy a fotografiar
       Em          Am       C  D
cada detalle en mi corazón.

G

E                            Am
Y es que recuerdos siempre habrá
D                  Bm
pero no valen para nada mas
Em              Am
que para establecer
                F#7
ratios de felicidad
                B7
y poderlos comparar

E Am D Bm Em Am Cm Bm Am

G                   Bm
Guardaré algo de querer
                     Am
por si alguna vez te vas.
                   C
Haré ver que está aquí
           Cm             D
y que cada vez me quieres más.
       B            G
Hoy te quiero agradecer
          Em           Am                 C   D
que no te canses de mi retorcida forma de ser.

G               Bm
Y vamos a aprovechar
                         Am
que esta tarde brilla el sol.
                          C
Por si el lunes cambia el tiempo
         Cm              D
y con él cambia nuestro amor.
      B        G
Voy a fotografiar
       Em          Am       C  D
cada detalle en mi corazón.

A                 C#m
Vamos a querernos mas
                  A Bm
y a cuidarnos sin parar.
                       D
Pues aun quedan muchos años
     Dm          E
para la inmortalidad.
        C#        A
Asi que vamos a comer,
         F#m          Bm        D  E
hay cena preparada en la sartén.

A                      C#m
Pues no me canso del color
                   A  Bm
de tu carita al despertar,
                        D
de tus discursos por la noche,
       Dm            E
de tus bromas, de contar
          C#                  A
todas las cosas que hay que hacer
             F#m           Bm        D E A
hasta que el tiempo quiera respirar.

para cualquier duda sobre esta o otra de mis transcripciones:

.:nosoyunmuneco@

            
            
Suggest correction
Creating personal tab
Creating personal tab
You can edit any tab online and save it as your Personal.

You can edit, replace or remove any tab part or add personal notes – all changes will be seen only by you.

Personal tabs can be accessed anytime from any device, even offline.
Learn more »
Give kudos to tab author, rate the tab!
1 2 3 4 5
comments
print report bad tab
guest
Wanna post a correction for this tab? Suggest correction