Oops, an error
Loading. Please wait.

Muero De Amor tab

38 views 1 this week
no commentswrite comment
1 2 3 4 5
3 more votes to show rating
add to favorites
×
Save as Personal and add changes to this tab that will be seen only by you. Learn more ›
×
You can save this tab as Personal to edit and correct it or add notes. All changes will be seen only by you. Learn more »
launch autoscroll
font size
0
reset
how to read this tab
guitar tuner
edit
Autoscroll
slow
fast
+/-
esc
set tempo
stop
Esta piola el tema
jejeje


e|-----7-9-9-9-7----7-----9-9-9-7----7----|
B|--10-----------10---10----------10---10-|
G|-9--------------------------------------|
D|----------------------------------------|
A|----------------------------------------|
E|----------------------------------------|


e|----------------------------------------|
B|-9-9-9-7-9-7-9-7----7-9-10-9-7/9-7/9-7--|
G|-----------------9----------------------|
D|----------------------------------------|
A|----------------------------------------|
E|----------------------------------------|


e|----------------------------------------|
B|-7-9-10-9-7-9---------------------------|
G|--------------9-------------------------|
D|----------------------------------------|
A|----------------------------------------|
E|----------------------------------------|


e|------7---12-10-9----9-12-10-9----9-10--|
B|---10-------------10-----------10-------|
G|-9--------------------------------------|
D|----------------------------------------|
A|----------------------------------------|
E|----------------------------------------|


e|-9-10-9-10-9--------9-10-9--------------|
B|-------------12--12--------10-----------|
G|----------------------------------------|
D|----------------------------------------|
A|----------------------------------------|
E|----------------------------------------|


e|----9-------9-------10/12-10-12-10-9----|
B|-12---12-10---3--5----------------------|
G|----------------------------------------|
D|----------------------------------------|
A|----------------------------------------|
E|----------------------------------------|


LA                          MI
Quiero que sepas que te quiero
                         FA#m
Que de amor por ti me muero
                    DO#m
Que ya no puedo respirar
                         RE
Me falta el aire si no estas
         LA                 MI
Me falta todo si tu no estas aquí.


LA                            MI
Quiero que sepas que te quiero
                         FA#m
Que de amor por ti me muero
                     DO#m
Que ya no puedo respirar
                         RE
Me falta el aire si no estas
         LA                  MI
Me falta todo si tu no estas aquí.


           LA
Yo quiero amarte
            MI
Quiero entregarte el corazón
          FA#m
Yo quiero todo tu amor
          DO#m
Yo quiero todo tu amor.


         LA
Quiero besarte
            MI
Quiero abrazarte hasta morir
          FA#m
Yo quiero todo tu amor
          DO#m
Yo quiero todo tu amor.
    RE    MI       LA
Yo quiero todo tu amor...


LA                            MI
Quiero que sepas que te quiero
                         FA#m
Que de amor por ti me muero
                     DO#m
Que ya no puedo respirar
                         RE
Me falta el aire si no estas
         LA                  MI
Me falta todo si tu no estas aquí.


LA                         MI
Quiero que sepas que en mi cama
                        FA#m
Esta tu aroma y en mi almohada tu luz
        DO#m  RE                    LA
Y tu perfume esta empregnado en mi piel
           MI
Como el calor de tus besos.


           LA
Yo quiero amarte
            MI
Quiero entregarte el corazón
          FA#m
Yo quiero todo tu amor
          DO#m
Yo quiero todo tu amor.


         LA
Quiero besarte
            MI
Quiero abrazarte hasta morir
          FA#m
Yo quiero todo tu amor
          DO#m
Yo quiero todo tu amor.
    RE    MI       LA
Yo quiero todo tu amor...


-R*dr!g*-

            
            
Suggest correction
Creating personal tab
Creating personal tab
You can edit any tab online and save it as your Personal.

You can edit, replace or remove any tab part or add personal notes – all changes will be seen only by you.

Personal tabs can be accessed anytime from any device, even offline.
Learn more »
Give kudos to tab author, rate the tab!
1 2 3 4 5
comments
print report bad tab
guest
Wanna post a correction for this tab? Suggest correction