Oops, an error
Loading. Please wait.

Cuentos Y Cuentas chords

10 views 1 this week
no commentswrite comment
1 2 3 4 5
3 more votes to show rating
add to favorites
×
Save as Personal and add changes to this tab that will be seen only by you. Learn more ›
×
You can save this tab as Personal to edit and correct it or add notes. All changes will be seen only by you. Learn more »
launch autoscroll
font size
0
reset
transpose
0
reset
display chords
guitar tuner
edit
Autoscroll
slow
fast
+/-
esc
set tempo
stop
Strumming
There is no strumming pattern for this song yet. and get +5 IQ
INTRO:

Dm    A#    G       Dm   A#    C  Dm    A#    G              C-A#-C-D#

E|--0-1-0-----------|--0-1-0-------|--0-1-0-------------0-----
B|-3-----3-1-----3-3|-3-----3-1-3-1|-3-----3-1-----3-3-3-3-3-1
G|2---------0-0-0---|2-------------|2---------0-0-0-----------
D|------------------|--------------|--------------------------
A|------------------|--------------|--------------------------
E|------------------|--------------|--------------------------

1)
Dm          A#         G
Con el prestigio que gane siendo bocon
Dm      A#          C
puedo tirar algunos años
Dm           A#            G
y cuando el mundo viene a pedirme perdon yo no lo atiendo

C-A#-C-D#

1)
si hice del odio mi autentica religion
no se vivir de otra manera
y cuando el mundo me ofrece una explicacion yo no lo acepto

C-A#-C-D#

(INTRO)

1)
si pude ser un idolo del rockandroll
un caprichoso y consentido
porque de un dia para el otro
todos son amigos mios

C-A#-C-D#

1)
que alguien me diga lo que me puede costar
el sacrificio de una idea
para sacarle el culo a tanta explicacion

C-A#-C-D#

Dm-A#-G-Dm-A#-C-Dm---A#-G-C-A#-C-D#

SOLO FINAL:

 Dm       A#         G          Dm        A#      C

E|--10-12-13-12-10----------10-10|--10-12-13-12-10---10--|
B|10--------------13-------------|10--------------13---13|
G|------------------12-12-12-----|-----------------------|
D|-------------------------------|-----------------------|
A|-------------------------------|-----------------------|
E|-------------------------------|-----------------------|

 Dm       A#        G                          C-A#-C-D#

E|--10-12-13-12-10----------10-10-10-12-10-10---|
B|10--------------13--------------------------13|
G|------------------12-12-12--------------------|
D|----------------------------------------------|
A|----------------------------------------------|
E|----------------------------------------------|

            
            
Suggest correction
Creating personal tab
Creating personal tab
You can edit any tab online and save it as your Personal.

You can edit, replace or remove any tab part or add personal notes – all changes will be seen only by you.

Personal tabs can be accessed anytime from any device, even offline.
Learn more »
Give kudos to tab author, rate the tab!
1 2 3 4 5
comments
print report bad tab
guest
Wanna post a correction for this tab? Suggest correction