Oops, an error
Loading. Please wait.

Disneylandia chords

32 views 1 this week
no commentswrite comment
1 2 3 4 5
3 more votes to show rating
add to favorites
×
Save as Personal and add changes to this tab that will be seen only by you. Learn more ›
×
You can save this tab as Personal to edit and correct it or add notes. All changes will be seen only by you. Learn more »
launch autoscroll
font size
0
reset
transpose
0
reset
simplify chords
display chords
guitar tuner
edit
Autoscroll
slow
fast
+/-
esc
set tempo
stop
Strumming
There is no strumming pattern for this song yet. and get +5 IQ
DISNEYLANDIA
INTRO G D C D (X4)
G------------------------------C
Ahora que soy grande
G-----------------------------C
no quiero que me manden
(etc)
los ángeles caídos
G----------------------------C-D
no duermen conmigo
G5G5G5F5G5G5G5D5D5D5C5D5D5D5palm mute sobre todo la primera vez ustedes ven
me voy a disneylandia (X2)

LO QUE VIENE ES IGUAL QUE LA PRIMERA ESTROFA
tirado en una cama,
haciendo un crucigrama
veo lo que pasa
por una ventana

(IGUAL QUE EL ESTRIBILLO)
me voy a disneylandia (x2)
C5------------------------------------C5.B5.A5
me voy a disneylandia en un tren volador
G5---------------------C5----------------D5
me voy a darle cuerda a mi despertador


todo lo que duele
duele hasta mañana
el amor más largo
dura una semana
me voy a dineylandia (X2)
me voy a disneylandia en un tren volador
me voy a darle cuerda a mi despertador

SOLO 1

G-------------------D---------C----------D
pago lo que debo,
(IGUAL)
hago los mandados
duermo y me levanto
con el pié cambiado

me voy a dineylandia
me voy a disneylandia en un tren volador
me voy a darle cuerda a mi despertador

G-------------------D---------C----------D
estoy perdiendo el tiempo con un ascensor
le estoy hablando bajo a tu contestador
a tu contestador

SOLO 1
e------------------------------------------------------------
b------------------------------------------------0---3--3--1-
g-3----0--0---------0------0--------------0------------------
d----------------3------3--------3---------------------------
---0-------------------
-------3--3---3--1--0--
------------------------2
-----------------------
X 2 + LOS ACORDES DE LA INTRO
Vamos la chancha carajo!!!

            
            
Suggest correction
Creating personal tab
Creating personal tab
You can edit any tab online and save it as your Personal.

You can edit, replace or remove any tab part or add personal notes – all changes will be seen only by you.

Personal tabs can be accessed anytime from any device, even offline.
Learn more »
Give kudos to tab author, rate the tab!
1 2 3 4 5
comments
print report bad tab
guest
Wanna post a correction for this tab? Suggest correction