Oops, an error
Loading. Please wait.

Cancion Fugaz tab

7 views 1 this week
no commentswrite comment
1 2 3 4 5
3 more votes to show rating
add to favorites
×
Save as Personal and add changes to this tab that will be seen only by you. Learn more ›
×
You can save this tab as Personal to edit and correct it or add notes. All changes will be seen only by you. Learn more »
launch autoscroll
font size
0
reset
how to read this tab
guitar tuner
edit
Autoscroll
slow
fast
+/-
esc
set tempo
stop
Esta es otra buena canción de La Clika (Clica) de Chihuahua, muy buena.
No podria haberla hecho sin la colaboración del Beto Moreno, saludos k! 
gracias. Como siempre, va dedicada a mi chaparrita, te amo.


ACORDES UTILIZADOS (Respecto al capo: el 0 se toca al aire, pero 
                    en realidad es en el 2do traste, por el capo, ok?)

CAPO EN EL SEGUNDO TRASTE

    F#    B   Bsus2  C#  C#sus4  G#    D#m

e---0-----0-----0-----2-----2-----2-----4-----------------------|
B---0-----2-----0-----4-----5-----2-----5-----------------------|
G---1-----2-----2-----4-----4-----3-----6-----------------------|
D---2-----2-----2-----4-----4-----4-----6-----------------------|
A---2-----0-----0-----2-----2-----4-----4-----------------------|
E---0-----0-----0-----2-----2-----2-----4-----------------------|

INTRO:

e-2-2-2-2-2-2-2-2-2-2-2---0-0-0-0-0-0-0-0-0-0-0----------|
B-4-4-4-4-4-5-4-2-4-4-4---2-2-2-2-2-3-2-0-2-2-2----------|
G-4-4-4-4-4-4-4-4-4-4-4---2-2-2-2-2-2-2-2-2-2-2----------|
D-4-4-4-4-4-4-4-4-4-4-4---2-2-2-2-2-2-2-2-2-2-2----------|
A-2-2-2-2-2-2-2-2-2-2-2---0-0-0-0-0-0-0-0-0-0-0----------|
E-2-2-2-2-2-2-2-2-2-2-2---0-0-0-0-0-0-0-0-0-0-0----------|

e-2-2-2-2---2-2-4-2---2-2-2-2---2-2-4-2--------------|
B-0-0-0-0---2-2-2-2---0-0-0-0---2-2-2-2--------------|
G-1-1-1-1---3-3-3-3---1-1-1-1---3-3-3-3--------------|
D-2-2-2-2---4-4-2-4---2-2-2-2---4-4-2-4--------------|
A-2-2-2-2---4-4-4-4---2-2-2-2---4-4-4-4--------------|
E-0-0-0-0---2-2-2-2---0-0-0-0---2-2-2-2--------------|

e-2-2-2-2-2--2-2-2-2-2--2-2-2-2-4--4-4-4-4-4-------|
B-2-2-2-2-2--2-2-2-2-2--2-2-2-2-4--4-4-4-4-4-------|
G-3-3-3-3-4--4-4-4-4-4--3-3-3-3-6--6-6-6-6-6-------|
D-4-4-4-4-4--4-4-4-4-4--4-4-4-4-6--6-6-6-6-6-------|
A-4-4-4-4-2--2-2-2-2-2--4-4-4-4-4--4-4-4-4-4-------|
E-2-2-2-2-2--2-2-2-2-2--2-2-2-2-4--4-4-4-4-4-------|

e----0-0-0-0-0--4-4-4-4-4--0-0-0-0-0-0--4-4-4-4-4-4----|
B----2-2-2-2-2--5-5-5-5-5--2-2-2-2-2-2--5-5-5-5-5-5----|
G----2-2-2-2-2--6-6-6-6-6--2-2-2-2-2-2--6-6-6-6-6-6----|
D----2-2-2-2-2--6-6-6-6-6--2-2-2-2-2-2--6-6-6-6-6-6----|
A----0-0-0-0-0--4-4-4-4-4--0-0-0-0-0-0--4-4-4-4-4-4----|
E----0-0-0-0-0--4-4-4-4-4--0-0-0-0-0-0--4-4-4-4-4-4----|

e-----4-4-4-4-4-4-4-4-4-4-4---0-0-0-0-0-0-0-0-0-0-|
B-----5-5-5-5-5-5-5-5-5-5-5---0-0-0-0-0-0-0-0-0-0-|
G-----6-6-6-6-6-6-6-6-6-6-6---1-1-1-1-1-1-1-1-1-1-|
D-----6-6-6-6-6-6-6-6-6-6-6---2-2-2-2-2-2-2-2-2-2-|
A-----4-4-4-4-4-4-4-4-4-4-4---2-2-2-2-2-2-2-2-2-2-|
E-----4-4-4-4-4-4-4-4-4-4-4---0-0-0-0-0-0-0-0-0-0-|


F#
A campo huele la ciudad

el cielo azul se torna ya
B
si te tengo junto a mi
C#
que mas puedo pedir 


F#
La vida me ha tratado mal

mil veces creo, que mas da
B
si te tengo junto a mi
C#                       C#sus4 - C#
mi balance es ser feliz


F#
Pues a tu lado todo sabe bien

lo eres todo para mi
B
no me ocurren frases nuevas
C#
con las cuales describir


F#
lo que eres en mi vida

lo que representas para mi
B
todo lo que yo te amo
C#                      C#sus4 - C#
es imposible describir


      F#
Somos tu y yo
B
tu y yo
        F#
Siempre tu y yo
B      
tu y yo


C# - C#sus4 - C#


F#
La noche siempre es calidez

el crudo invierno no lo es
B
estando junto a ti
C#
no termina nunca el mes de abril


F#
Si bien el tiempo corre mas

de prisa si conmigo estas
         B
que por tal parezca corta
C#                             C#sus4 - C#
esta vida ya habra eternidad


F#
Pues a tu lado todo sabe bien

lo eres todo para mi
B
no me ocurren frases nuevas
C#
con las cuales describir


F#
lo que eres en mi vida

lo que representas para mi
B
todo lo que yo te amo
C#                       C#sus4 - C#
es imposible describir

     F#
Somos tu y yo
B
tu y yo
       F#
Siempre tu y yo
B        
tu y yo

BRIDGE:

e-2-2-2-2---2-2-4-2---2-2-2-2---2-2-4-2--------------|
B-0-0-0-0---2-2-2-2---0-0-0-0---2-2-2-2--------------|
G-1-1-1-1---3-3-3-3---1-1-1-1---3-3-3-3--------------|
D-2-2-2-2---4-4-2-4---2-2-2-2---4-4-2-4--------------|
A-2-2-2-2---4-4-4-4---2-2-2-2---4-4-4-4--------------|
E-0-0-0-0---2-2-2-2---0-0-0-0---2-2-2-2--------------|

e-2-2-2-2-2--2-2-2-2-2--2-2-2-2-4--4-4-4-4-4-------|
B-2-2-2-2-2--2-2-2-2-2--2-2-2-2-4--4-4-4-4-4-------|
G-3-3-3-3-4--4-4-4-4-4--3-3-3-3-6--6-6-6-6-6-------|
D-4-4-4-4-4--4-4-4-4-4--4-4-4-4-6--6-6-6-6-6-------|
A-4-4-4-4-2--2-2-2-2-2--4-4-4-4-4--4-4-4-4-4-------|
E-2-2-2-2-2--2-2-2-2-2--2-2-2-2-4--4-4-4-4-4-------|

e----0-0-0-0-0--4-4-4-4-4--0-0-0-0-0-0--4-4-4-4-4-4----|
B----2-2-2-2-2--5-5-5-5-5--2-2-2-2-2-2--5-5-5-5-5-5----|
G----2-2-2-2-2--6-6-6-6-6--2-2-2-2-2-2--6-6-6-6-6-6----|
D----2-2-2-2-2--6-6-6-6-6--2-2-2-2-2-2--6-6-6-6-6-6----|
A----0-0-0-0-0--4-4-4-4-4--0-0-0-0-0-0--4-4-4-4-4-4----|
E----0-0-0-0-0--4-4-4-4-4--0-0-0-0-0-0--4-4-4-4-4-4----|

e-----4-4-4-4-4-4-4-4-4-4-4---0-0-0-0-0-0-0-0-0-0-|
B-----5-5-5-5-5-5-5-5-5-5-5---0-0-0-0-0-0-0-0-0-0-|
G-----6-6-6-6-6-6-6-6-6-6-6---1-1-1-1-1-1-1-1-1-1-|
D-----6-6-6-6-6-6-6-6-6-6-6---2-2-2-2-2-2-2-2-2-2-|
A-----4-4-4-4-4-4-4-4-4-4-4---2-2-2-2-2-2-2-2-2-2-|
E-----4-4-4-4-4-4-4-4-4-4-4---0-0-0-0-0-0-0-0-0-0-|

D#m                   C#
Solo espero que esta eternidad
     B                            F#   D#m
siga siempre porque siempre te amaré
                           C#
Y aunque el mundo llegue a su final
    B                         C# - C#sus4 - C#
mi alma, mi mente contigo estará

    F#
Solo tu y yo
B
tu y yo
      F#
Siempre tu y yo
B
tu y yo
 

OUTRO:

e-2-2-2-2---2-2-4-2---2-2-2-2---2-2-4-2-2-2----------------|
B-0-0-0-0---2-2-2-2---0-0-0-0---2-2-2-2-2-2----------------|
G-1-1-1-1---3-3-3-3---1-1-1-1---3-3-3-3-3-3---6~~~---------|
D-2-2-2-2---4-4-2-4---2-2-2-2---4-4-2-4-4-4---6~~~---------|
A-2-2-2-2---4-4-4-4---2-2-2-2---4-4-4-4-4-4---4~~~---------|
E-0-0-0-0---2-2-2-2---0-0-0-0---2-2-2-2-2-2---4~~~---------| 


Dudas, sugerencias, comentarios, correciones, escribanme.

            
            
Suggest correction
Creating personal tab
Creating personal tab
You can edit any tab online and save it as your Personal.

You can edit, replace or remove any tab part or add personal notes – all changes will be seen only by you.

Personal tabs can be accessed anytime from any device, even offline.
Learn more »
Give kudos to tab author, rate the tab!
1 2 3 4 5
comments
print report bad tab
guest
Wanna post a correction for this tab? Suggest correction