Oops, an error
Loading. Please wait.

Chapoteando tab

32 views 1 this week
no commentswrite comment
1 2 3 4 5
3 more votes to show rating
add to favorites
×
Save as Personal and add changes to this tab that will be seen only by you. Learn more ›
×
You can save this tab as Personal to edit and correct it or add notes. All changes will be seen only by you. Learn more »
launch autoscroll
font size
0
reset
how to read this tab
guitar tuner
edit
Autoscroll
slow
fast
+/-
esc
set tempo
stop
CHAPOTEANDO- LA COLOSA


  Intro

  G5            F5 G5                     G5
e|-------------------------------------------------------------
B|-----5s6-5s6-----------6b-6ba-p3----3------------------------
G|-----4s5-4s5----------------------5---5-3v-------------------
D|-------------------------------------------3-5p3h5p3h5p3h5---
A|-------------------------------------------------------------
E|-------------------------------------------------------------

  F5 G5
e|---------------
B|------5s6-5s6--
G|------4s5-4s5--
D|---------------
A|---------------
E|---------------


  Riff 1     Riff 2    Riff 3    Riff 4
  F5-G5     F5-G5      F5-G5
e|--------|----------|----------|-----10-----10-----------------
B|-----6--|-5-3h5-3--|-5---5-3--|-10b----10b----10b-10ba-p8-10-8
G|-5s7----|-5-3h5-3b-|-5ba-5-3b-|-------------------------------
D|--------|----------|----------|-------------------------------
A|--------|----------|----------|-------------------------------
E|--------|----------|----------|-------------------------------

  Riff 5                              Riff 6
e|-----10-----10-----10-------------|-----------|----------------
B|-10b----10b----10b----10ba-p8---8-|-10ba-10-8-|----------------
G|------------------------------9---|-----------|----------------
D|----------------------------------|-----------|----------------
A|----------------------------------|-----------|----------------
E|----------------------------------|-----------|----------------


G5                     Riff 1
Llegando a la estacion

G5                     Riff 2
ella quizo un poco mas

G5                     Riff 1
cambio drogas por amor

G5                    Riff 3
y se hizo en su final


largo viaje ha caminado
y no le importa mas
algo que le haga bien
o eso que le hace mal.


G5
pero se va alejando en el Oste

D5
Salpica colores a su alrededor

G5
ese espiritu vagabundo

C5
que te acompaña hoy

G5
en ese sucio antro todo arde

C5                            G5
mientras suena ese viejo rocanrol


C5
y le voy mandando el pie al acelerador

G5      Riff 4
para pasarla mejor

                            D5
en el torino voy mejor que allá

                     G5
si te da un poco rocanrol


C5
voy chapoteando

                G5   Riff 5
en ese oscuro camino

     D5                            Riff 6
no podrás conseguir lo que quieras

 G5
y menos a tú manera

  Solo
e|-------------------------------------------------------------
B|-6b-6ba-p3---3-----------------------------------------------
G|-----------5---5-3v------------------3-5v--5ba-p3---3--------
D|--------------------3-5p3h5p3h5p3h5---------------5----------
A|-------------------------------------------------------------
E|-------------------------------------------------------------

e|-----10-10-----10-10-----10---6-6-6-6---s15-15-15------------
B|-----10-10-----10-10-----10---6-6-6-6---s15-15-15-18b--------
G|-12b-------12b-------12b-------------------------------------
D|-------------------------------------------------------------
A|-------------------------------------------------------------
E|-------------------------------------------------------------

e|------------------------15-18-18b-18-15-----15-18--18p15-----
B|-18ba-p15----15--------------------------18--------------18--
G|----------17----17-15v---------------------------------------
D|-------------------------------------------------------------
A|-------------------------------------------------------------
E|-------------------------------------------------------------

e|-15----------------------------------------------------------
B|----18-15--18p15-----15--------------------------------------
G|-----------------17-----17-15--17p15------15-----------------
D|-------------------------------------17------17-15---17-15---
A|-----------------------------------------------------------17
E|-------------------------------------------------------------

e|-------------------------------------------------------------
B|-------------------------------------------------------------
G|-------------------------------------------------------------
D|-15----------------------------------------------------------
A|----17-15---17-15------15------------------------------------
E|------------------18------18-15---18-15-13--15-13-10--13-10--

e|---------------------------------------10--10-10--10-10--10--
B|---------------------------------------10b----10b----10b-----
G|---------------5-7b-7-5---5-7ba-p5---------------------------
D|-----------5-7----------7----------7-------------------------
A|--------s7---------------------------------------------------
E|-8-10--------------------------------------------------------

e|---------------10---12---14-------
B|-10ba-p8---8---13b--15b--17b------
G|---------9------------------------
D|----------------------------------
A|----------------------------------
E|----------------------------------

G5                                  D5
y hoy es sabado y la limusina negra nena


no paso por vos

G5
perdida y abandonada te dejaron

C5
en aquel salon

G5
y anque no tengas ojos para verlo

             C5
y aunque el veneno en la sangre


te diga que hacer

         G5
sabes que no

             D5
que no vas a poder...

y le voy mandando el pie al acelerador
para pasarla mejor
en el torino voy mejor que allá
si te da un poco rocanrol

voy chapoteando
en ese oscuro camino
no podrás conseguir lo que quieras
y menos a tú manera


  Final
e|-------------------------------------------------------------
B|--6b-6ba-p3---3-------------6--------------5-----------------
G|------------5----5-3v---5s7-----3----------5ba-3-------------
D|----------------------------------5-3-3h5--------5---3h5-5---
A|-------------------------------------------------------------
E|-------------------------------------------------------------

e|---------------
B|-3-------------
G|-3b------------
D|----5-3-5--5---
A|-----------5---
E|-----------3---

            
            
Suggest correction
Creating personal tab
Creating personal tab
You can edit any tab online and save it as your Personal.

You can edit, replace or remove any tab part or add personal notes – all changes will be seen only by you.

Personal tabs can be accessed anytime from any device, even offline.
Learn more »
Give kudos to tab author, rate the tab!
1 2 3 4 5
comments
print report bad tab
guest
Wanna post a correction for this tab? Suggest correction