Oops, an error
Loading. Please wait.

Hoy, En Este Lugar tab

8 views 1 this week
no commentswrite comment
1 2 3 4 5
3 more votes to show rating
add to favorites
×
Save as Personal and add changes to this tab that will be seen only by you. Learn more ›
×
You can save this tab as Personal to edit and correct it or add notes. All changes will be seen only by you. Learn more »
launch autoscroll
font size
0
reset
how to read this tab
guitar tuner
edit
Autoscroll
slow
fast
+/-
esc
set tempo
stop
INTRO:

1|----------------------------------------------------------------------------------------------------|
2|----------1414---------------------------17-17-14-17/20-20-20-19-17-15----------------------15----15|
3|-------14------1616/19-19-19-18-16----14-------------------------------15/16-14-12----13/14----14---|
4|-13/14-----------------------------13----------------------------------------------16---------------|
5|----------------------------------------------------------------------------------------------------|
6|----------------------------------------------------------------------------------------------------|

Sube!!!!...

1|---------------------------------------------------------------------|
2|---------------------------------------------------------------------|
3|---------------------------------------------------------------------|
4|---4-7p4---4---7p4---4-----------------------------------------------|
5|-5-------5---5-----5-----4-7p4---4-5-4-2-4-2-2-4-4/7 9-9-7/5-7-5-----|
6|-----------------------5-------5-------------------------------------|


1|---------------------------------------------------------------------|
2|---------------------------------------------------------------------|
3|---------------------------------------------------------------------|
4|---4-7p4---4---7p4---4-----------------------------------------------|
5|-5-------5---5-----5-----4-7p4---4-5-4-2-4-2-2-4-4/7 9-9-7/5-7-5-----|
6|-----------------------5-------5-------------------------------------|


D5
Hoy en este lugar 
sin prenderse en la intención
deja sola la canción
que lo hizo emocionar.

Se diluye sin sudor 
se transmuta sin hablar
desafina el corazón
que quizás no puede hallar.

Y será que hoy no tiene,
no tiene que ver adentro
no tiene que andar despacio
ni volver si ya volvieron
no tiene que pensar solo
no tiene que ver su cuerpo
tiene que parar la lluvia
y engancharse en el aliento.

Y tomar la energía 
que ellos mismos encendieron
y hoy camina entre las bocas
de los muchos que perdieron
sin dudar en ver el sueño
de un camino hecho a medida
con calor, con dulce amargo,
pero lleno de alegría,
que nunca se encuentra
sin ponerse a andar.


Sebastián Pazos, seba_do@

            
            
Suggest correction
Creating personal tab
Creating personal tab
You can edit any tab online and save it as your Personal.

You can edit, replace or remove any tab part or add personal notes – all changes will be seen only by you.

Personal tabs can be accessed anytime from any device, even offline.
Learn more »
Give kudos to tab author, rate the tab!
1 2 3 4 5
comments
print report bad tab
guest
Wanna post a correction for this tab? Suggest correction