Oops, an error
Loading. Please wait.

Buscando Bebida Y Alegria chords

28 views 3 this week
no commentswrite comment
1 2 3 4 5
3 more votes to show rating
add to favorites
×
Save as Personal and add changes to this tab that will be seen only by you. Learn more ›
×
You can save this tab as Personal to edit and correct it or add notes. All changes will be seen only by you. Learn more »
launch autoscroll
font size
0
reset
transpose
0
reset
display chords
guitar tuner
edit
Autoscroll
slow
fast
+/-
esc
set tempo
stop
Strumming
There is no strumming pattern for this song yet. and get +5 IQ
Aquí dejo mi primera colaboración, espero y les agrade.


Intro:

D-Bm-G-A x1

e|---------------------------------
B|---------------------------------
G|-----7---7----9-7-4--4-7-4-------
D|-7-9---9-----------7------7-5--7-
A|---------------------------------
E|---------------------------------

e|--------------------------------------
B|-7-7-5-7-x2---7-3--3-2-0----0-1-2--3-2
G|--------------------------------------
D|--------------------------------------  x2
A|--------------------------------------
E|--------------------------------------


 D
Otra noche más sin poder dormir
 Bm
otra noche mas de pensar en ti
 G
otro amanecer un poco descompuesto
 A
otro día loco de esos que estoy impuesto.


 D
Otro tarde más de fin de semana
 Bm
prendo un cigarrillo, de esos de rama
 G
viernes, fiesta amigos y caguama
 A
vamos a la fiesta que la noche es lava

 G
porque empieza a sonar la guitarra
 A
y siempre me acuerdo yo de ti
 G
porque empieza a sonar la trompeta
 A
y siempre me acuerdo yo de ti

e|--------------------------------------
B|-7-7-5-7-x2---7-3--3-2-0----0-1-2--3-2
G|--------------------------------------
D|--------------------------------------  x2
A|--------------------------------------
E|--------------------------------------

 D
Otro día mas de muchos recuerdos
 Bm
otro día mas de sentirte lejos
 G
otro día mas sin poder tocarte
 A
otro día mas sin poder amarte


 D
Gente va y viene por estas calles
 Bm
gente con recuerdos similares
 G
buscando un poco de bebida
 A
buscando un poco de alegría


 G
Porque empieza a sonar la guitarra
 A
y todo el mundo quiere bailar
 G
porque empieza a sonar la trompeta
 A
y todo el mundo se para a bailar

e|--------------------------------------
B|-7-7-5-7-x2---7-3--3-2-0----0-1-2--3-2
G|--------------------------------------
D|--------------------------------------  x2
A|--------------------------------------
E|--------------------------------------


 D
Siempre que me llega la noche
 G                    A
me aclara el pensamiento.
 D
Y más aumenta el deseo
 G            A
de tenerte aqui junto a mi.
 D
No se que me pueda pasar
 G                          A
yo no lo comprendo pues te quiero más y más.
 D
Laa laa laa laa laa ra laaa
 G                     A
lara lara lara lara lara la la la la

e|--------------------------
B|-7--7-5-3----3-5-3-2-0----
G|--------------------------
D|-------------------------- x4
A|--------------------------
E|--------------------------
Suggest correction
Creating personal tab
Creating personal tab
You can edit any tab online and save it as your Personal.

You can edit, replace or remove any tab part or add personal notes – all changes will be seen only by you.

Personal tabs can be accessed anytime from any device, even offline.
Learn more »
Give kudos to tab author, rate the tab!
1 2 3 4 5
comments
print report bad tab
guest
Wanna post a correction for this tab? Suggest correction