Oops, an error
Loading. Please wait.

Cruda Soledad tab

by La Cuca
99 views 1 this week
no commentswrite comment
1 2 3 4 5
3 more votes to show rating
add to favorites
×
Save as Personal and add changes to this tab that will be seen only by you. Learn more ›
×
You can save this tab as Personal to edit and correct it or add notes. All changes will be seen only by you. Learn more »
launch autoscroll
font size
0
reset
how to read this tab
guitar tuner
edit
Autoscroll
slow
fast
+/-
esc
set tempo
stop
Riff 1 0:00
e|-------------------------------------------------
b|-------------------------------------------------
g|-----------5------------5----------5-----------5-
d|--------6----6------6----6-----6----6-----6-----6
a|-------------------4----------5-----------4------
e|-----4-------------------------------------------

e|-------------------------------------------------
b|-------------------------------------------------
g|-----------5------------5----------5-----------3-
d|--------6----6------6----6-----6----6-----6-----6
a|-------------------4----------5-----------4------
e|-----4-------------------------------------------
Riff 2    0:39
e|-------------------------------------|
b|-------------------------------------|
g|---------3-3------------------------|
d|------6-------6---------------------|
a|---4---------------------------------|
e|-------------------------------------|

Riff 3 0:40
e|-------------------------------------------------------------------------
b|-------------------------------------------------------------------------
g|------5-----5-----------5------5-----------5-------5-------------5------5
d|---6---6------6------6---6------6-------6---6-------6--------6---6------6
a|---------------------4---------4---------5---------5---------4---------4-
e|4---------4--------------------------------------------------------------


e|-------------------------------------------------------------------------
b|-------------------------------------------------------------------------
g|------5-----5-----------5------5-----------5-------5-------------3------3
d|---6---6------6------6---6------6-------6---6-------6--------6---6------6
a|---------------------4---------4---------5---------5---------4---------4-
e|4---------4--------------------------------------------------------------

Riff 4     1:06
e|-------------------------------------|
b|-------------------------------------|
g|--------5--------5------------------|
d|-----------6--------6---------------|
a|-----4--------4---------------------|
e|-------------------------------------|

Riff 5  1:08
e|------------------------------------------|
b|------------------------------------------|
g|-----7--------8--------------------------|
d|-----7--------8-------4--------6--------|
a|-----5--------6-------4--------6--------|
e|-----------------------2--------4--------|
            D5      D5#    Fm5#    G5#


Riff 6  1:21
e|-------------------------------------------------|
b|-------------------------------------------------|
g|-----------5---3---1---------------------------|      3x
d|-----------6---6---2-----4-4-4--x------6----|
a|---------------------------4-4-4--x------6----|
e|---0--4-------------------2-2-2--x------4----|
                                          F5#                G5#

e|------------------------------------------|
b|------------------------------------------|
g|------------------------------------------|
d|---4-4-4--x---6------------------------|
a|---4-4-4--x---6------------------------|
e|---2-2-2--x---4------------------------|
           F5#          G5#


Riff 3  1:44
Riff 4  2:23
Riff 5  2:25
Riff 6  2:39


Solo  3:02
e|---------------------------------------
b|----11b13---9---11b13---9--------------
g|--------------------------10~----------
d|---------------------------------------
a|---------------------------------------
e|---------------------------------------


e|----------------------11-----------------
b|----11b13---9---11b13-----11b13---9~-----
g|-----------------------------------------
d|-----------------------------------------
a|-----------------------------------------
e|-----------------------------------------


e|-------------------------------------------|
b|---11b13---9----11b13---9------------------|
g|---------------------------10~-------------|
d|-------------------------------------------|
a|-------------------------------------------|
e|-------------------------------------------|


e|11-------11--------11------------------------------------------
b|11b13-------11b13-------11h9------9-----------9h7-----------------
g|---------------------------------------10----------10-------10----
d|------------------------------------------------------------------
a|------------------------------------------------------------------
e|------------------------------------------------------------------
Riff 5
Riff 6

Riff 7  4:13
e|-4----------------------------------|
b|---4-------------------------------|
g|-----5-----------------------------|
d|-------6---------------------------|
a|---------6-------------------------|
e|-----------4-----------------------|


Cruda soledad
Riff 1
Extraño y apartado
Siempre inadaptado
A sido así?siempre así?
Amargo e inseguro
Este cuarto oscuro
                                   Riff 2
A sido así?y es así?

Riff 3
Me siento discapacitado
Necesito ser amado
Pero no es así..nunca a sido así?
No quiero ser un hombre roto
Ser como cualquier otro
                             Riff 4
Pero no así?así

Riff 5
Se que soy diferente y tu sabes por que?
Me duele ver a la gente?
Amándose?

Riff 6
Cruda soledad?
La cruda soledad me ahoga..
No puedo respirar?
No puedo soportar...la cruda soledad?


Riff 3
Nunca e disfrutado
Tener alguien a mi lado
A sido así... siempre a sido así?
Quien me dará ese momento
Quien me dará su tiempo
                                                    Riff 4
Solo para mi? solo para mi?

Riff 5
Se que soy diferente y tu sabes por que...
Me duele ver a la gente...
Amándose?

Riff 6
Cruda soledad?
La cruda soledad me ahoga..
No puedo respirar?
No puedo soportar...la cruda soledad?

Solo
Riff 5
Se que soy diferente y yo bien se por que?

Riff 6
Cruda soledad?
No puedo respirar?
No puedo soportar...
Ya no puedo respirar?
No puedo más con esta cruda soledad?
Riff 7

            
            
Suggest correction
Creating personal tab
Creating personal tab
You can edit any tab online and save it as your Personal.

You can edit, replace or remove any tab part or add personal notes – all changes will be seen only by you.

Personal tabs can be accessed anytime from any device, even offline.
Learn more »
Give kudos to tab author, rate the tab!
1 2 3 4 5
comments
print report bad tab
guest
Wanna post a correction for this tab? Suggest correction