Oops, an error
Loading. Please wait.

Regresa Amor tab

85 views 1 this week
no commentswrite comment
1 2 3 4 5
3 more votes to show rating
add to favorites
×
Save as Personal and add changes to this tab that will be seen only by you. Learn more ›
×
You can save this tab as Personal to edit and correct it or add notes. All changes will be seen only by you. Learn more »
launch autoscroll
font size
0
reset
how to read this tab
guitar tuner
edit
Autoscroll
slow
fast
+/-
esc
set tempo
stop
 La Cumbia- Regresa amor


  =letra=

    A                     D
   Hoy solo pensando mi amor
           E                  A
  me arrepiento y te pido perdón
            A                     D
  como un tonto sin querer te engañe
           E                      A
  regrasa pronto que yo te esperaré


         A
   No quiero sentir la nostalgia de un dia
       E            D
  sin ti mi amor,espero que llege el momento
           E               F#m
  de escuchar tu voz, las noches se hacen
               Bm
  eternas, te juro que quiero que vuelvas,
        D
  yo quiero sentir la tibiesa de tu piel
        E
  acobigandome.

        A                    F#m
   en tu alma mi amor, mi vida mi pasión,
          D                   E
  locura terrible eres en mi corazón,
             A              F#m
  por que no regresas, sin ti moriré,
      D                                    E
  te juro que quiero que vuelvas a mi otra vez


  =coro=

       A
   Regresa amor, el tiempo como siempre
        C#m
  borrará el rencor, yo sé que lo que hice,
            D            Bm
  no tiene perdón, un engaño tan absurdo,
                     E
  partio mi vida en dos


  =Este es el punteo que hece mientras canta=

    A   E
 e|-9---7--|-9---9-10---9-10-9-7---10-9-7----9-7-----------|
 b|-10--9--|------------------------------10-----10-8-8/10-|
 g|-9---9--|-----------------------------------------------|
 a|--------|-----------------------------------------------|
 d|--------|-----------------------------------------------|
 E|--------|-----------------------------------------------|
             hoy solo pensando mi amor...


 e|------10--------7------7-9--------12---12-12---12-12v-|
 b|-8/10------8-10-----10--------------------------------|
 g|------------------------------------------------------|
 a|------------------------------------------------------|
 d|------------------------------------------------------|
 E|------------------------------------------------------|
   te engañe. regresa pronto que yo te esperare...

  =Solo=

 e|-----------------------------------------|
 b|-----------------------------------------|
 g|-9(x3)----9(x4)-------9-11-13-11-9-11-9v-|
 a|-------11-------11-11--------------------|
 d|-----------------------------------------|
 E|-----------------------------------------|

 e|---------------------------------------------|
 b|---------------------------------------------|
 g|-9-11-13-11-9-11-9-------9------------9-11-9-|
 a|-------------------11/12----11/12--12--------|
 d|---------------------------------------------|
 E|---------------------------------------------|

 e|---------------------------|
 b|---------------------------|
 g|---------------------------|
 a|-11-11/12-12---11-12-11-9v-|
 d|---------------------------|
 E|---------------------------|

 e|-12(x3)----12(x4)---------12-14-14/16-|
 b|--------14--------14-14---------------|
 g|--------------------------------------|
 a|--------------------------------------|
 d|--------------------------------------|
 E|--------------------------------------|

 e|-16-14-16-14-16-16/19v--19(x3)-17-16-|
 b|-------------------------------------|
 g|-------------------------------------|
 a|-------------------------------------|
 d|-------------------------------------|
 E|-------------------------------------|

 e|-16/17---16-14v---14-16-17-16-14-12v-|
 b|-------------------------------------|
 g|-------------------------------------|
 a|-------------------------------------|
 d|-------------------------------------|
 E|-------------------------------------|

 e|--------------|
 b|-14-15-14-12v-|
 g|--------------|
 a|--------------|
 d|--------------|
 E|--------------|

    A   E   D  F#m Bm  C#m
 e|-5-|-7-|-5-|-2-|-2-|-4-| x: no se tocan
 b|-5-|-9-|-7-|-2-|-3-|-5-|
 g|-6-|-9-|-7-|-2-|-4-|-6-|
 a|-x-|-x-|-x-|-x-|-x-|-x-|
 d|-x-|-x-|-x-|-x-|-x-|-x-|
 E|-x-|-x-|-x-|-x-|-x-|-x-|

  Ahi la tienen. vi q algen' la abia pedido y
 se la escribi... esta fue de las primeras can-
 ciones de cumbia q saque. con esta se podria decir
 que me inicie en la cumbia...

 si tienen dudas ya saben mi mail, nos estaremos
 viendo........................................


 e|----------5--7--9--10--12-|
 b|-5--7--8------------------|
 g|--------------------------|
 a|--------------------------|
 d|--------------------------|
 E|--------------------------|

 la verdad es q me dio flojera escribir el punteo
 de la letra entero, pero con esa escala de arriba
 pueden sacar todo el punteo q lleva la letra de
 LA canción
Suggest correction
Creating personal tab
Creating personal tab
You can edit any tab online and save it as your Personal.

You can edit, replace or remove any tab part or add personal notes – all changes will be seen only by you.

Personal tabs can be accessed anytime from any device, even offline.
Learn more »
Give kudos to tab author, rate the tab!
1 2 3 4 5
comments
print report bad tab
guest
Wanna post a correction for this tab? Suggest correction