Oops, an error
Loading. Please wait.

Te Lo Digo Yo tab

87 views 1 this week
no commentswrite comment
1 2 3 4 5
3 more votes to show rating
add to favorites
×
Save as Personal and add changes to this tab that will be seen only by you. Learn more ›
×
You can save this tab as Personal to edit and correct it or add notes. All changes will be seen only by you. Learn more »
launch autoscroll
font size
0
reset
how to read this tab
guitar tuner
edit
Autoscroll
slow
fast
+/-
esc
set tempo
stop
=SOLO=

     ____ x2 ____
   /              \
 e|----------------|------------------------------------------|
 b|---12-10-10-9-9-|-9-7---7^-9-7^-9-7^-9-7^-9-10-9-7-9-7-----|
 g|-9--------------|-----9--------------------------------9-9-|
 d|----------------|------------------------------------------|
 a|----------------|------------------------------------------|
 E|----------------|------------------------------------------|


                                                  _____ x2 ______
                                                /                 \
 e|-------------7-9-10-/12-10-9-10-12-14-16-17-|----19-17-17-16-16-|
 b|------7-9-10--------------------------------|-17----------------|
 g|----9---------------------------------------|-------------------|
 d|-11-----------------------------------------|-------------------|
 a|--------------------------------------------|-------------------|
 E|--------------------------------------------|-------------------|


 e|-16-14----14^-16-14^-16-14^-16-14^-16-17-16-14-16-14-------|
 b|-------17--------------------------------------------17-17-|
 g|-----------------------------------------------------------|
 d|-----------------------------------------------------------|
 a|-----------------------------------------------------------|
 E|-----------------------------------------------------------|


 e|-------14-16-17-19-21-19--17-19-17-16-17-16-14-16-14-12-14-12-10-12-10-9-10-12-|
 b|-14-17-------------------------------------------------------------------------|
 g|-------------------------------------------------------------------------------|
 d|-------------------------------------------------------------------------------|
 a|-------------------------------------------------------------------------------|
 E|-------------------------------------------------------------------------------|


 =LETRA=

 E                 B
 Tu que le prometiste amor
               A
 y tan solo jugabas
             B
 con su corazón

 E                     B
 ella que te brindava todo
                 A
 tu tan solo jugaste con
           B                     E
 el sentimiento de aquel gran amor

     C#m                                G#m
 y ahora que ya no la tienes allí a tu lado
                  A                      B
 por que andas ablando, que fuiste el mejor
     C#m                                       G#m
 creiste que fuiste el primero que estuvo en su vida
              A                B
 ya no te engañes, te lo digo yo


 =TECLADO=

 =GUITARRA=

 e|--------------9-------------------9-------------------------------9-11-12-|
 b|---7-9-12--12---12-10-9-12-12--12---10-12-12-10-12-9-10-9-7----12---------|
 g|-9----------------------------------------------------------9-------------|
 d|--------------------------------------------------------------------------|
 a|--------------------------------------------------------------------------|
 E|--------------------------------------------------------------------------|


 E                   A
 Yo soy el que le enseña lo que es amor
 B                                 E
 lo que ayer contigo eya no aprendió
 C#m            F#m
 y te quedaste solo
             B                            E
 sigue tu camino que ella conmigo será feliz


 =SOLO=


 =NOTAS=


    E  G#m F#m C#m  B   A
 e|-7-|-7-|-5-|-4-|-7-|-5-|
 b|-9-|-9-|-7-|-5-|-7-|-5-|
 g|-9-|-8-|-8-|-6-|-8-|-6-|
 d|-x-|-x-|-x-|-x-|-x-|-x-|
 a|-x-|-x-|-x-|-x-|-x-|-x-|
 E|-x-|-x-|-x-|-x-|-x-|-x-|


 =Final salseando=

 e|-9*--------------------------------------------------|
 b|---9--------9-10-9-7-10*-9-7-7---7-9-7---7-----------|
 g|-----9----9--------------------9-------9-------------|
 d|-------11-----------------------------------11-11-11-|
 a|-----------------------------------------------------|
 E|-----------------------------------------------------|

 e|-9*------------------------------------------------9-/12-|
 b|---9--------9-10-9-7-10*-9-7-7---7-9-7---7-------9-------|
 g|-----9----9--------------------9-------9-------9---------|
 d|-------11-----------------------------------11-----------|
 a|---------------------------------------------------------|
 E|---------------------------------------------------------|

 * ese signo se lo di a las algunas notas que se repiten
 varias veces rapidas

 bueno lokillos ahi otra mas de la cumbia de yo!!! las notas
 se q están bien y se me ekivoke fue por muy poco pero
 los punteos me falto para que estén =... los ice algunos
 un poco resumidos pero si le hayan el ritmo = les va a sonar
 bien ;) acepto críticas....... eso seria todo, nos volveremos
 a ver en alguna otra cumbiita por ahi quizas

            
            
Suggest correction
Creating personal tab
Creating personal tab
You can edit any tab online and save it as your Personal.

You can edit, replace or remove any tab part or add personal notes – all changes will be seen only by you.

Personal tabs can be accessed anytime from any device, even offline.
Learn more »
Give kudos to tab author, rate the tab!
1 2 3 4 5
comments
print report bad tab
guest
Wanna post a correction for this tab? Suggest correction