Oops, an error
Loading. Please wait.

A Broken Jar tab

version 2
version 2

Whole song

2,182 views 12 this week
4 commentsread comments
1 2 3 4 5
x 3
add to favorites
×
Save as Personal and add changes to this tab that will be seen only by you. Learn more ›
×
You can save this tab as Personal to edit and correct it or add notes. All changes will be seen only by you. Learn more »
launch autoscroll
font size
0
reset
how to read this tab
guitar tuner
edit
Autoscroll
slow
fast
+/-
esc
set tempo
stop
Author
Difficulty
intermediate
A BROKEN JAR - La Dispute
Tabbed by: ICantEven
Tuning: E Standard 

This is the studio version, the version on wildlife is similar but in a different key. I'm almost 100% that 
this is correct aside from the number of times he hits each chord as he switches it up a bit and you're going 
to have to listen to the track for things like rhythm. Here's the video I went off of
https://www.youtube.com/watch?v=OlETyWy3lyw .

e|----------------------------------------------------------------------------------------------------|
B|--8--8--8--8--10--8--10---10--10--10--10--10--10----------------------------------------------------|
G|--9--9--9--9--9---9--9----9---9---9---9---9---9----9---9---9---9---9---9---9---9---9---9---9---9----|
D|--7--7--7--7--7---7--7----7---7---7---7---7---7----7---7---7---7---7---7---7---7---7---7---7---7----|
A|--7--7--7--7--7---7--7----8---8---8---8---8---8----8---8---8---8---8---8---8---8---8---8---8---8----|
E|---------------------------------------------------10--10--10--10--10--10--10--10--10--10--10--10---| x3

e|----------------------------------------------------------------------------------------------------|
B|--8--8--8--8--10--8--10---10--10--10--10--10--10----------------------------------------------------|
G|--9--9--9--9--9---9--9----9---9---9---9---9---9----9---9---9---9---9---9---9---9---9----------------|
D|--7--7--7--7--7---7--7----7---7---7---7---7---7----7---7---7---7---7---7---7---7---7----------------|
A|--7--7--7--7--7---7--7----8---8---8---8---8---8----8---8---8---8---8---8---8---8---8----------------|
E|---------------------------------------------------10--10--10--10--10--10--10--10--10--8--8--8------|

e|----------------------------------------------------------------------------------------------------|
B|----------------------------------------------------------------------------------------------------|
G|----7--5--------7-----10------10--12--10-----9--10--9-----------------------------------------------|
D|----------7---------------------------------------------------------------------------10-10-10------|
A|-------------------------------------------------------12-12-12-----------------------x--x--x-------|
E|--5----------6-----6------10--------------9------------9--9--9---10-10-10--12-12-12---9--9--9-------|

e|----------------------------------------------------------------------------------------------------|
B|----------------------------------------------------------------------------------------------------|
G|--7--7--7--7--7--7----7--7--7--7--7--7----3--3--3--3--3--3----2--2--2--2--2--2----2--2--2--2--2--2--|
D|--8--8--8--8--8--8----7--7--7--7--7--7----3--3--3--3--3--3----2--2--2--2--2--2----2--2--2--2--2--2--|
A|--5--5--5--5--5--5----5--5--5--5--5--5----x--x--x--x--x--x----x--x--x--x--x--x----x--x--x--x--x--x--|
E|--6--6--6--6--6--6----5--5--5--5--5--5----3--3--3--3--3--3----2--2--2--2--2--2----1--1--1--1--1--1--|

e|-----------------------------------------0----------------------------------------------------------|
B|-----------------------------------------0----------------------------------------------------------|
G|--2--2--2--2--2--2----1--1--1--1--1--1---1----------------------------------------------------------|
D|--2--2--2--2--2--2----2--2--2--2--2--2---2(let ring)------------------------------------------------|
A|--2--2--2--2--2--2----2--2--2--2--2--2---2----------------------------------------------------------|
E|--0--0--0--0--0--0-----------------------0----------------------------------------------------------|

e|----------------------------------------------------------------------------------------------------|
B|--8--8--8--8--10--8--10---10--10--10--10--10--10----------------------------------------------------|
G|--9--9--9--9--9---9--9----9---9---9---9---9---9----9---9---9---9---9---9---9---9---9---9---9---9----|
D|--7--7--7--7--7---7--7----7---7---7---7---7---7----7---7---7---7---7---7---7---7---7---7---7---7----|
A|--7--7--7--7--7---7--7----8---8---8---8---8---8----8---8---8---8---8---8---8---8---8---8---8---8----|
E|---------------------------------------------------10--10--10--10--10--10--10--10--10--10--10--10---| x3

e|----------------------------------------------------------------------------------------------------|
B|--8--8--8--8--10--8--10---10--10--10--10--10--10----------------------------------------------------|
G|--9--9--9--9--9---9--9----9---9---9---9---9---9----9---9---9---9---9---9---9---9---9----------------|
D|--7--7--7--7--7---7--7----7---7---7---7---7---7----7---7---7---7---7---7---7---7---7----------------|
A|--7--7--7--7--7---7--7----8---8---8---8---8---8----8---8---8---8---8---8---8---8---8----------------|
E|---------------------------------------------------10--10--10--10--10--10--10--10--10--8--8--8------|

e|----------------------------------------------------------------------------------------------------|
B|----------------------------------------------------------------------------------------------------|
G|----7--5--------7-----10------10--12--10-----9--10--9-----------------------------------------------|
D|----------7---------------------------------------------------------------------------10-10-10------|
A|-------------------------------------------------------12-12-12-----------------------x--x--x-------|
E|--5----------6-----6------10--------------9------------9--9--9---10-10-10--12-12-12---9--9--9-------|

e|----------------------------------------------------------------------------------------------------|
B|----------------------------------------------------------------------------------------------------|
G|--7--7--7--7--7--7----7--7--7--7--7--7----3--3--3--3--3--3----2--2--2--2--2--2----2--2--2--2--2--2--|
D|--8--8--8--8--8--8----7--7--7--7--7--7----3--3--3--3--3--3----2--2--2--2--2--2----2--2--2--2--2--2--|
A|--5--5--5--5--5--5----5--5--5--5--5--5----x--x--x--x--x--x----x--x--x--x--x--x----x--x--x--x--x--x--|
E|--6--6--6--6--6--6----5--5--5--5--5--5----3--3--3--3--3--3----2--2--2--2--2--2----1--1--1--1--1--1--|

e|-----------------------------------------0----------------------------------------------------------|
B|-----------------------------------------0----------------------------------------------------------|
G|--2--2--2--2--2--2----1--1--1--1--1--1---1----------------------------------------------------------|
D|--2--2--2--2--2--2----2--2--2--2--2--2---2(let ring)------------------------------------------------|
A|--2--2--2--2--2--2----2--2--2--2--2--2---2----------------------------------------------------------|
E|--0--0--0--0--0--0-----------------------0----------------------------------------------------------|

************************************

| x  Dead note

************************************

            
            
Suggest correction
Creating personal tab
Creating personal tab
You can edit any tab online and save it as your Personal.

You can edit, replace or remove any tab part or add personal notes – all changes will be seen only by you.

Personal tabs can be accessed anytime from any device, even offline.
Learn more »
Give kudos to tab author, rate the tab!
1 2 3 4 5
comments
print report bad tab
4 comments total. Showing first comments.
+1 reply
gustavoaraujo9 3,288 Jun 19, 2015 04:37 PM

Good job. I've tried tabbing this before (unsucessfully).

I have some suggestions:

part 1: (less notes)
e|----|----|----|
B|-10-|-10-|----|
G|-9--|-9--|-9--|
D|-7--|-x--|-x--|
A|----|-8--|-8--|
E|----|----|-10-|

part 2: (just the transition, actually. I think it has more notes)
e|----------------------------------------------|------------------------------------|
B|--------------------6-------------------------|------------------------------------|
G|----7-5-------7------------10-12-10----9-10-9-|------------------------------------|
D|--------7-------------------------------------|---------------------------10101010-|
A|----------------------------------------------|-12121212-------------------x-x-x-x-|
E|--5---------6-----6-----10------------9-------|-9-9-9-9--10101010-12121212-9-9-9-9-|

part 3: (first and second chords.)
e|---|---|---|---|---|---|---|-0~-|
B|---|---|---|---|---|---|---|-0~-|
G|-7-|-7-|-3-|-2-|-2-|-2-|-1-|-1~-|
D|-8-|-7-|-3-|-2-|-2-|-2-|-2-|-2~-|
A|-x-|-x-|-x-|-x-|-x-|-2-|-2-|-2~-|
E|-6-|-5-|-3-|-2-|-1-|---|---|-0~-|

guest
You may want to rate the tab now too:
select rating
Wanna post a correction for this tab? Suggest correction