Oops, an error
Loading. Please wait.

A Word Of Welcome And Of Warning Tab

1,523 views 3 this week
no commentswrite comment
1 2 3 4 5
accurate
x 4
add to favorites
launch autoscroll
font size
0
reset
how to read this tab
guitar tuner
Autoscroll
slow
fast
+/-
esc
set tempo
stop
Help us to improve Ultimate-Guitar.com Take our survey!
×
Author
Difficulty
Tuning
novice
D A D G B E
Interesting, short, noisy song from Vancouver.
Enjoy. guys!


Intro:

E|----------------------------------|
B|-------16-----16-------16---16----|  
G|-------19-----19-------19---19----|   
D|----------------------------------|    
A|----------------------------------|
D|-000000---0000---000000---00------| x2
   
E|----------------|
B|----------------|  
G|----------------|   
D|-*Pickslide*----|    
A|----------------|     
D|----------------|



Figure 1:

E|------------------| \
B|---9-7-6-7-6------|  \
G|-7-----------8p7--|   \
D|------------------|    \
A|------------------|     \
D|------------------|x3    \
                           x4
E|------------------|      /
B|---9-7-6--101010--|     /
G|-7--------131313--|    /
D|------------------|   / 
A|------------------|  /    
D|------------------| /



Figure 2:

E|-------------------|
B|--15--15--15--15---|  
G|----13--13--13--13-|   
D|-------------------|    
A|-------------------|     
D|-------------------| x8

E|-----------|
B|--15151515-|  
G|--13131313-|   
D|-----------|    
A|-----------|     
D|-----------| x8




Figure 3:

E|-------------------------------------------------------|
B|-----------------------------------------------151515--|  
G|-----------------------------------------------131313--|   
D|----3p0-2p0---3p0-2p0----6------3p0-2p0----------------|    
A|-00---------00--------00-----00---------000-000--------|     
D|-00---------00--------00-----00---------000-000--------| x2

E|------------|
B|------------|  
G|-7//////13--|   
D|-6//////12--|    
A|------------|     
D|------------|



Figure 4:

(Let note ring and let bass play out)

E|-----------|
B|-15~~~~~~--|  
G|-----------|   
D|-----------|    
A|-----------|     
D|-----------|

(Until 1:20)

E|--------------------------|
B|----11-10-8---------------| 
G|--7---------7-1010-9h10p9-|   
D|--------------------------|    
A|--------------------------|     
D|--------------------------| x3

E|------------------------|
B|----11-10-8-------------| 
G|--7---------7---10-9-7--|   
D|----------------8--7-5--|    
A|------------------------|     
D|------------------------|



Figure 5:

E|----------------------------------------------|
B|----11-10-8---------------11-10-8-------------| 
G|--7---------10-9-10-9---7---------10-99-10p9--|   
D|----------------------------------------------|    
A|----------------------------------------------|     
D|----------------------------------------------|

E|-------------------------------------------------|
B|----11-10-8---------------11-10-8--//11-//13-//--| 
G|--7---------10-9-7-5----7------------------------|   
D|-------------------------------------------------|    
A|-------------------------------------------------|     
D|-------------------------------------------------|

E|-------------------------------------|
B|----------11-10-8-10--11-10-8-10-----|
G|--7~-7-8~-----------------------10---|   
D|-------------------------------------|    
A|-------------------------------------|     
D|-------------------------------------|

E|------------------------------------------|
B|----------11-10-8-10~-//11-//13-//15~~~~--| 
G|--7~-7-8~---------------------------------|   
D|------------------------------------------|    
A|------------------------------------------|     
D|------------------------------------------|



Back to Intro:

E|----------------------------------|
B|-------16-----16-------16---16----|  
G|-------19-----19-------19---19----|   
D|----------------------------------|    
A|----------------------------------|
D|-000000---0000---000000---00------| x2
   


Figure 6:

E|----------------------------------|
B|-------11-----11-------11---11----|  
G|-------14-----14-------14---14----|   
D|-000000---0000---000000---00------|    
A|-000000---0000---000000---00------|
D|-000000---0000---000000---00------| x4


Since the ending is clearly almost un-tab-able, so to speak, just end with playing 
a bunch of semi-muted high notes that were previously used in the song.
Suggest correction
What's this?
You can suggest a correction to this tab. Community and Mods will review your correction and vote to approve or reject it.
comments
print report bad tab
guest
You may want to rate the tab now too:
select rating
Please do not post tabs as comments. Select "correction" instead!