Oops, an error
Loading. Please wait.

Edward Benz 27 Times Bass Tab

3,751 views 9 this week
no commentswrite comment
1 2 3 4 5
excellent!
x 3
add to favorites
launch autoscroll
font size
0
reset
guitar tuner
Autoscroll
slow
fast
+/-
esc
set tempo
stop
Help us to improve Ultimate-Guitar.com Take our survey!
×
Author
Artist : La Dispute
Song  : Edward Benz, 27 Times
Album : Wildlife

Standard Tuning (Maybe?!)

Tabbed by ear. I might be off an octave near the ending,
if so it'll probably be easier to play the song in drop D with everything
on the E string adjusted accordingly. Open to comments/suggestions/etc.


00:09

G|------------------------------------------------------------------------|
D|------------------------------------------------------------------------|
A|----5-5-----5-5-----5-5-----------5-5-----5-5-----5-5-------------------|  x2
E|----------------------------6~~~~-------------------------6\-3-/-6~~~---|


00:55

G|----------------------------------------------------------------------|
D|----------------------------------------------------------------------|
A|--------5-5-----5-5-----5-5-----5-5-----5-5-----5-5-------------------|
E|-5~~~~~~------------------------------------------------6-6-----6-6---|


G|----------------------------------------------------------------------|
D|----------------------------------------------------------------------|
A|---5-5-----5-5-----5-5-----5-5----------------------------------------|
E|-----------------------------------6-6-----6-6-----6-6-----6-6--------|


G|----------------------------------------------------|
D|------------3-----------------------3---------------|
A|--------3-5---5-3---------------3-5---5-3-----------|
E|--6-3h5-----------6-6-6-6-6-3h5-----------6-666\1-1-|



G|------------------------------------------------------------|
D|------------3-----------------------3-----------------------|
A|--------3-5---5-3---------------3-5---5-3-------------------|
E|--6-3h5-----------6-6-6-6-6-3h5-----------6-666\1-1/-6~~~~~-|



01:59

G|-----------------------------------------------------------------|
D|-----------------------------------------------------------------|
A|--5~~~~~~~----------------------3/---5/---7/---8/---10\---5~~~~~-|
E|------------------6\---1/---3------------------------------------|


[Play these notes muted and very lightly but still able to ring]
G|----------------------------------------------|
D|----------------------------------------------|
A|----3~~~~~~~------5~~~~~~~--------3~~~~~~~----|
E|----------------------------------------------|



02:32

G|-----------------|
D|-----------------|
A|----5-5-7-7-8-8--| x3
E|-----------------|



G|-------------------------------------------------------------------------|
D|-------------------------------------------------------------------------|
A|------------5---------------5-----5-5----------5----5-5------------5~~~~-|
E|--6-------6-------3-------3/----------6-----66----------6------6-6-------|



G|---------------------------------------------------------------------------|
D|--------------------------------------------3355-----3355----3355-----8877-|
A|---5-5-7788-5-5-7788-5-5-7788-5-5--7788------------------------------------|
E|-----------5--------5--------5---------56-6-----56-6-----56-6----56-6------|



G|-----------------------------------------------------|
D|-----------------------------------------------------|
A|---5-5-7788-5-5-7788-5-5-7788-5-5-----5~~~~~~~~------|
E|--5--------5--------5--------5-----------------------|


04:01

G|--------------------------------------------------------|
D|--------------------------------------------------------|
A|--5/--7/--8/--12--10--12--13--13-13\--8--10----8-10-12--|
E|--------------------------------------------------------|



G|-------------------------------------------|
D|-------------------------------------------|
A|--0-0--12--12--13--13-13\--8--10--7--8--5--|
E|-------------------------------------------|



G|---------------------------------------------------------------------|
D|---------------------------------------------------------------------|
A|--13--13\---8--10--8-10-12----12--12-12-13--13-13\---8--10--7--8--5--|
E|---------------------------------------------------------------------|


G|---------------------------------------------------------------|
D|---------------------------------------------------------------|
A|--5-5-5-5------------------------------------------------------|
E|------------6--6-666\-1-3--3-33-1-3-5--5--55--5--55--5--55-3-5-|



G|------------------------------------------------------|
D|------------------------------------------------------|
A|--------------------------55-5-5-55-5-5-55-5-5-887755-|
E|--6--6-666\-1-3--3-33-0-1-----------------------------|



G|--------------------------------------------------------|
D|--------------------------------------------------------|
A|-----8--8---------5--5--------7-----7-----7-------------|
E|--6----6--6\-1-3----3--1-3-5----0-55--0-55---0-5-3-5----|



G|--------------------------------------------------------|
D|--------------------------------------------------------|
A|-----8--8---------5--5-----5~~~~~-----------------------|
E|--6----6--6\-1-3----3--0-1------------------------------|

| /  slide up
| \  slide down
| h  hammer-on
| p  pull-off
| ~  vibrato
| +  harmonic
| x  Mute note
Suggest correction
Give kudos to tab author, rate the tab!
1 2 3 4 5
comments
print report bad tab
guest
You may want to rate the tab now too:
select rating
Wanna post a correction for this tab? Suggest correction