Oops, an error
Loading. Please wait.

Harder Harmonies Bass Tab

1,195 views 15 this week
no commentswrite comment
1 2 3 4 5
please rate
add to favorites
launch autoscroll
font size
0
reset
guitar tuner
Tab Pro tools
  • play this tab
  • loop segment
  • change instrument
  • show fretboard
  • metronome
×
Best way to learn
"Harder Harmonies"
Autoscroll
slow
fast
+/-
esc
set tempo
stop
Contributor
Difficulty
intermediate
Track: Harder Harmonies
Artist: La Dispute
Album: Wildlife (2011)
Tuning: EADG (Standard)

This was tabbed by myself by ear. I'd say it's about 99% accurate
Please figure out the timing on your own and enjoy!

0:05 - 0:19
(notes are correct, not exactly sure how many times he plays each one. its a feel thing)
G--------------------------------------------------------------|
D--------------------------------------------------------------|
A--------------------------------------------------------------| x4
E-----3h5-5-3-5--5-5-5-5---1-1-1-1-1-1-1-1-1-------------------|

0:19
G--------------------------------------------------------------|
D--------------------------------------------------------------|
A-----5555555555555555--3333333333333333-----------------------|
E--------------------------------------------------------------|

0:24
G--------------------------------------------------------------|
D--------------------------------------------------------------| x4
A--------3--------------777--555--7h8-8888---------------------|
E----3h5---5-x-5~~~--5-----------------------------------------|

0:40
G-----------------------------------------------------------|
D-----------------------------------------------------------|
A-----5555555555555555--3333333333333333--------------------|
E-------------------------------------------5\\\\\1---------|

0:48
(skip the last slide on the 4th time)
G--------------------------------------------------------------|
D--------------------------------------------------------------| x4
A-----5h7--3---------------------------------------------------|
E--------------5\\\\\1-----------------------------------------|

1:00
G--------------------------------------------------------------|
D--------------------------------------------------------------| x4
A-----7--5555--3-5\\\\1----------------------------------------|
E-------------------------1---3--------------------------------|

1:08
G--------------------------------------------------------------|
D--------------------------------------------------------------|
A---------------------------------------------------3--2-------|
E----5~~~~~~~~~-----1~~~~~~~~---3~~~~----5~~~~~~~~--------3--0-|

1:17
G--------------------------------------------------------------|
D--------------------------------------------------------------|
A---------------------------------------------------3--2--5----|
E---3h5~~~~~~~~~-----1~~~~~~~~---3~~~~----5~~~~~~~~----------3-|

1:24
G-------------------------------------------------|
D-------------------------------------------------|
A------------------3------------------3--2--------|
E---3h5~--5-----1------3~~-3h5~--5----------3--0--|

1:33
G-------------------------------------------------|
D-------------------------------------------------|
A------------------3------------------3--2--5-----|
E---3h5~--5-----1------3~~-3h5~--5-------------3--|

1:40
G-------------------------------------------------|
D-------------------------------------------------|
A------------------3------------------3--2--------|
E---3h5~--5-----1------3~~-3h5~--5----------3~~~--|

1:47
G-------------------------------------------------|
D-------------------------------------------------|
A------------------3------------------3--2--5-----|
E---3h5~--5-----1------3~~-3h5~--5-------------3--|

1:56
G-------------------------------------------------|
D-------------------------------------------------|
A------------------3------------------3--2--5--7--|
E---3h5~--5-----1------3~~-3h5~--5----------------|

2:04
(on second and 4th time, play the 8th fret as you hear it on the song...timing is tricky)
G--------------------------------------------------------------|
D--------------------------------------------------------------| x4
A--------------------------------------------------------8-8-8-|
E---5-5-55-5-5--56-66-6---1-1-1-----5-5-55-5-5--56-66-6--------|

2:38
(riff repeats until the end of song, except for one change near the end, see below)
G--------------------------------------|
D--------------------------------------|
A--------------------------------------|
E---55-5-5-55-5--52-2-2-2-22--1-1-1----|

3:18
(riff starting at 3:18 has two incidental notes played)
G--------------------------------------------------------------|
D--------------------------------------------------------------|
A--------------------------------------------------------------|
E---55-5-5-55-5--56-6-6-64-4-4-45-5-5-55-5-52~~~~~-2-1~~~~~~~--|
comments
We did not receive enough feedback on this tab! Please rate:
print report bad tab
1 2 3 4 5
I want to post or [tab]
guest
You may want to rate the tab now too:
select rating
Please do not post tabs as comments. Select "correction" instead!