Oops, an error
Loading. Please wait.

He Is Here He Is Not Afraid Tab

version 2
version 2

Whole song

824 views 1 this week
1 commentread comment
1 2 3 4 5
1 last vote to show rating
add to favorites
launch autoscroll
font size
0
reset
how to read this tab
guitar tuner
Autoscroll
slow
fast
+/-
esc
set tempo
stop
Help us to improve Ultimate-Guitar.com Take our survey!
×
Author
Difficulty
Tuning
novice
D A D G B E
----------------------------------------------------------------------------
                He Is Here, He Is Not Afraid - La Dispute
----------------------------------------------------------------------------

Tabbed by: x3ricxblink182

Email: x3ricxblink182@aim.com

Tuning: Drop D



Figure 1:   Start 0:00

E|--8-7----8-7--------8-7----8-7---------|
B|------5------5----------5------5----5--|
G|---------------------------------------|
D|---------------------------------------|
A|----------------0-----------------0----|
D|---------------------------------------|


Figure 2:  Start 0:10

E|----------------------------------------------------------------10h12h15-|
B|-10-10-13-13-10-13-------12-12-------12-12--12--1010-1313-10h13----------|
G|-------------------12-12------12-9-9-------9-----------------------------|
D|-------------------------------------------------------------------------|
A|-------------------------------------------------------------------------|
D|-------------------------------------------------------------------------|


Repeat Figure 1 at 0:58 



Figure 3: Start 1:04

E|------------------------|
B|------------------------|
G|------------------------|
D|-7-x7-x7-3--7-x7-x3-----|
A|-7-x7-x7-3--7-x7-x3-----|
D|-7-x7-x7/3--7-x7-x3-----|


Figure 4: Start 1:20

E|------------------------|
B|------------------------|
G|------------------------|
D|--8-x77-8-x77-3333------|
A|--8-x77-8-x77-3333------|
D|--8-x77-8-x77-3333------|


Figure 5: Start 2:06

E|-------------------------------------|
B|-------------------------------------|
G|-------------------------------------|
D|-------------------------------------|
A|--0000000000000000-5555555555555555--|
D|-------------------------------------|

Figure 6: Start 2:24

E|-------------------------------------|
B|-------------------------------------|
G|-------------------------------------|
D|-22222222222-3333333333-5555-7777----|
A|-------------------------------------|
D|-------------------------------------|

E|-------------------------------------|
B|-------------------------------------|
G|-------------------------------------|
D|-2222222222222222-33333333-2222------|
A|--------------------------------3333-|
D|-------------------------------------|


Figure 7: Start 2:59

E|-------------------------------|
B|-------------------------------|
G|-------------------------------|
D|-1010-9-1010-9-1010-9--5-5-5---|
A|--7-7-7--7-7-7--7-7-7--3-3-3---|
D|--7-7-7--7-7-7--7-7-7--3-3-3---|

Figure 8: Start 3:05

E|------------|
B|------------|
G|-12-12-12---|
D|--x--x--x---|
A|-10-10-10---|
D|------------|

E|--------------------------------|
B|--------------------------------|
G|--12--14141414141414-13-13-13---|
D|---x---x-x-x-x-x-x-x--x--x--x---|
A|--10/-12121212121212-11-11-11---|
D|--------------------------------|



Figure 9:  From 3:32 – 4:50

E|-----------------------------------------------------|
B|-----------------------------------------------------|
G|-99999999-55555555-999999999-5555555---121212121212--|
D|-77777777-33333333-777777777-3333333----x-x-x-x-x-x--|
A|-77777777-33333333-777777777-3333333--/101010101010--|
D|-77777777-33333333-777777777-3333333-----------------|
Suggest correction
Give kudos to tab author, rate the tab!
1 2 3 4 5
comments
print report bad tab
1 comment total.
0 reply
gustavoaraujo9 2,692 Jun 08, 2013 11:32 AM

Great tab, man. Except for the 10h12h15, I think the notes are all right, but I moved them around the fretboard a little and found out it was easier for me to play it like this:

Figure 1
e|-------------------------------------------------|
B|--13-12------13-12---------13-12-----13-12-------|
G|-------------------------------------------------|
D|--------14---------14------------14---------14---|
A|----------------------0------------------------0-|
D|-------------------------------------------------|

Figure 2
E|---------------------------------------------------------------------------15-|
B|-------13-13----13-------12-12----------12-12----12-------1313----13-12-15----|
G|-14-14-------14----12-12-------12--------------------1414------14-------------|
D|----------------------------------14-14-------14------------------------------|
A|------------------------------------------------------------------------------|
D|------------------------------------------------------------------------------|

Who knows, maybe it'll help somebody.

guest
You may want to rate the tab now too:
select rating
Wanna post a correction for this tab? Suggest correction