Oops, an error
Loading. Please wait.

Love Song For Poor Michigan Tab

738 views 6 this week
no commentswrite comment
1 2 3 4 5
2 more votes to show rating
add to favorites
launch autoscroll
font size
0
reset
how to read this tab
guitar tuner
Autoscroll
slow
fast
+/-
esc
set tempo
stop
Help us to improve Ultimate-Guitar.com Take our survey!
×
Author
This is a tab for the second part of Safer in The Forest/Love Song For Poor Michigan.
There's already a pretty good tab for Safer in the Forest, but you want to play the 
whole song, right?

"to a boring desperate city"

E|----------------------------------------------------------|
B|----------------------------------------------------------|
G|----9-9--8--11---12-12--12--11----------------------------|
D|----9-9--8--11---12-12--10--9-----------------------------|
A|----7-7--6--9----10-10--10--9-----------------------------|
E|-xxx-x-xx-xx--xxx--x--xx--xx------------------------------|

"are they now building up"

E|----------------------------------------------------------|
B|----------------------------------------------------------|
G|-5----0----5----0----2--4-5----0----7--4-5----0-----------|
D|-5----0----5----0----2--4-5----0----7--4-5----0---0-------|
A|-3----2----3----2----0--2-3----2----5--2-3----2---0-------|
E|------3---------3----2---------3--------------3---2-------|

"we will rise again"

E|----------------------------------------------------------|
B|----------------------------------------------------------|
G|-----5---4---7777----5---4---7777----5---4---7777----5--0-|
D|-2---5---4---77772---5---4---77772---5---4---77772---5--9-|
A|-2---3---2---55552---3---2---55552---3---2---55552---3----|
E|-0---------------0---------------0---------------0--------|
Suggest correction
Give kudos to tab author, rate the tab!
1 2 3 4 5
comments
print report bad tab
guest
You may want to rate the tab now too:
select rating
Wanna post a correction for this tab? Suggest correction