Oops, an error
Loading. Please wait.

New Storms For Older Lovers tab

version 2
version 2

Whole song

Interactive

4,718 views 12 this week
4 commentsread comments
1 2 3 4 5
x 7
add to favorites
×
Save as Personal and add changes to this tab that will be seen only by you. Learn more ›
×
You can save this tab as Personal to edit and correct it or add notes. All changes will be seen only by you. Learn more »
launch autoscroll
font size
0
reset
how to read this tab
guitar tuner
edit
Autoscroll
slow
fast
+/-
esc
set tempo
stop
Artist: La Dispute
Album: Somewhere At the Bottom of the River Between Vega and Altair
Song: New Storms for Older Lovers

I can thank whoever that made the Tab pro version 2 of this song which i only find
on the Ultimate guitar application on my phone.

This tab is for the lead guitar only.


Figure 1. Just a simple intro

E||--------------------------------------------------------------------|
B||--6---6-6-6-6---6--6-6-6-6---6--6-6-6-6---6--6-6-6-6---6--6-6-6-6---|
G||--7---7-7-7-7---7--7-7-7-7---7--7-7-7-7---7--7-7-7-7---7--7-7-7-7---|
D||--7---7-7-7-7---7--7-7-7-7---7--7-7-7-7---7--7-7-7-7---7--7-7-7-7---|
A||--5---5-5-5-5---5--5-5-5-5---5--5-5-5-5---5--5-5-5-5---5--5-5-5-5---|
D||--0---0-0-0-0---5--5-5-5-5---8--8-8-8-8---8--8-8-8-8---0--0-0-0-0---|

E||----------------------------------|
B||--6---6-6-6-6---6~~~--------------|
G||--7---7-7-7-7---7~~~--------------|
D||--7---7-7-7-7---7~~~--------------|
A||--5---5-5-5-5---5~~~*Pickslide*---|
D||--5---5-5-5-5---8~~~--------------|


Figure 2. Play this Figure two times, but...

E||--------------------------------------------------------------------------|
B||--------------------------------------------------------------------------|
G||---7---7-7-7-7---10---10-10-10-10---14---14-14-14-14---14---14-14-14-14---|
D||---x---x-x-x-x---x----x--x--x--x----x----x--x--x--x----x----x--x--x--x----|
A||---5---5-5-5-5---8----8--8--8--8----12---12-12-12-12---12---12-12-12-12---|
D||--------------------------------------------------------------------------|

                                             play this part on
E||----------------------------------------|---------------------|
B||----------------------------------------|---------------------|
G||---10---10-10-10-10---17---17-17-17-17--|--14---14-14-14-14---|
D||---x----x--x--x--x----x----x--x--x--x---|--x----x--x--x--x----|
A||---8----8--8--8--8----15---15-15-15-15--|--8----8--8--8--8----|
D||----------------------------------------|---------------------|

  the first time only and... then end the second time with this.
E||----------------------|-----------------------------------------|
B||----------------------|-----------------------------------------|
G||---14---14-14-14-14---|---15-15-15-15-15-15-15-15-15-15-15-15---|
D||---x----x--x--x--x----|---x--x--x--x--x--x--x--x--x--x--x--x----|
A||---12---12-12-12-12---|---13-13-13-13-13-13-13-13-13-13-13-13---|
D||----------------------|-----------------------------------------|


Figure 3. Play this figure 2 times but...

   play this part 6 times and then this part 1 time
E||------------------------|-----------------------|
B||---6---6-6-6-6----------|-----------------------|
G||---7---7-7-7-7----------|-----------------------|
D||---7---7-7-7-7----------|---8---8-8-8-8-8-7-3---|
A||---5---5-5-5-5----------|---8---8-8-8-8-8-7-3---|
D||---0---0-0-0-0----------|---8---8-8-8-8-8-7-3---|


Figure 4. Play this figure 2 times

E||-----------------------------------------------------------------------------|
B||-----------------------------------------------------------------------------|
G||-----------------------------------------------------------------------------|
D||---------------------------------------------------------8---8-8-8-8-8-7-3---|
A||------5/12-----5/12-----5/13-----5/13-----5/8-----5/8----8---8-8-8-8-8-7-3---|
D||---0--------0--------0--------0--------0-------0---------8---8-8-8-8-8-7-3---|


Figure 5. Palm mute the last 0's

E||----------------------------------------------|
B||----------------------------------------------|
G||----------------------------------------------|
D||---0-0---0-0---0-0---0-0---0-0---0-0---0*0*---|
A||---0-0---0-0---0-0---0-0---0-0---0-0---0*0*---|
D||---0-0---0-0---0-0---0-0---0-0---0-0---0*0*---|


Figure 6. I think you need to have some palm mutes on those last 8's.
                                         These
E||-------------------------------------------------|
B||---------6~~~------------6~~~--------------------|
G||---------9~~~------------9~~~--------------------|
D||---0-0~~~7~~~8-8~~~0-0~~~7~~~8-8~~~8-8-8-8-8-8---|
A||---0-0~~~~~~~8-8~~~0-0~~~~~~~8-8~~~8-8-8-8-8-8---|
D||---0-0~~~~~~~8-8~~~0-0~~~~~~~8-8~~~8-8-8-8-8-8---|


Figure 7.

               Either play this part 5 times, or...
E||------------------------------------------------------------------------------------------|
B||------------------------------------------------------------------------------------------|
G||-------9-7-5-7-----9-7-5-7---------9-7------9-7-5-7---------9-7-5-7-----9-7-----9-7-5-7---|
D||---0-0---------0-0---------5-7-0-0-----0-0----------5-7-8-8---------8-8-----8-8-----------|
A||------------------------------------------------------------------------------------------|
D||------------------------------------------------------------------------------------------|

                              ( This second option is actually played by  )
                              ( the second guitar but i think it sounds   )
                              ( better so i go with this.                 )

          <- play the the part from above 2 times,
              then this part one time
E||-------------------------------------------------|
B||-------10-8-6-10-----10-8-6-10-8-10-------10-8---|
G||-------------------------------------------------|
D||---0-0-----------0-0------------------0-0--------|
A||-------------------------------------------------|
D||-------------------------------------------------|

                       which continues here...      
E||---------------------------------------------------------------------------|
B||-------10-8-6-10-----10-8-6-10-8-10-----10-8-6-10-----10-8-----10-8-6-10---|
G||---------------------------------------------------------------------------|
D||---0-0-----------0-0----------------8-8-----------8-8------8-8-------------|
A||---------------------------------------------------------------------------|
D||---------------------------------------------------------------------------|

              and now play this last part 2 times
E||--------------10------------10-8-10---------------------10---|
B||-------10-8-6--------10-8-6-------------10-8-----10-8-6------|
G||-------------------------------------------------------------|
D||---0-0-----------0-0----------------0-0------0-0-------------|
A||-------------------------------------------------------------|
D||-------------------------------------------------------------|

E||--------------10-8-10------------10---------------------10---|
B||-------10-8-6-------------10-8-6--------10-8-----10-8-6------|
G||-------------------------------------------------------------|
D||---0-0----------------8-8-----------8-8------8-8-------------|
A||-------------------------------------------------------------|
D||-------------------------------------------------------------|


Figure 8...

E||-----------------------------------|
B||-----------------------------------|
G||-----------------------------------|
D||-------3~~~~~~~3~~~~~~~3~~~~~~~3~~~|
A||-----0~~~~~~~1~~~~~~~0~~~~~~~1~~~~~|
D||---0~~~~~~~0~~~~~~~0~~~~~~~0~~~~~~~|

Figure 9.

  Play this 6 times but palm mute the first 2 times
E||-----------------------------------------|
B||-----------------------------------------|
G||-----------------------------------------|
D||---0-----0-3-5-7-5-3-0-3-5-7-5-3-0-3-5---|
A||-----3-1---------------------------------|
D||-----------------------------------------|


Figure 10.

   This 2 times and then..     this one time.         End the song with this.
           Repeat this pattern 3 times.
E||---------------------|---------------------------|-----------|
B||---------------------|---------------------------|-----------|
G||---------------------|---------------------------|-----------|
D||-----------------1~~~|-------------------1~~~3~~~|-----------|
A||---5-5-5~~~5-5-5-1~~~|---5-5-5~~~5-5-5~~~1~~~3~~~|---5-5-5~~~|
D||---0-5-8~~~0-5-8-1~~~|---0-5-8~~~0-5-8~~~1~~~3~~~|---0-5-8~~~|

            
            
Suggest correction
Creating personal tab
Creating personal tab
You can edit any tab online and save it as your Personal.

You can edit, replace or remove any tab part or add personal notes – all changes will be seen only by you.

Personal tabs can be accessed anytime from any device, even offline.
Learn more »
comments
print report bad tab
4 comments total. Showing first comments.
0 reply
Seryth 32 Feb 14, 2014 10:04 AM

this bit
E||---------6~~~------------6~~~--------------------|
B||---------9~~~------------9~~~--------------------|
G||---------7~~~------------7~~~--------------------|
D||---0-0~~~~~~~8-8~~~0-0~~~~~~~8-8~~~8-8-8-8-8-8---|
A||---0-0~~~~~~~8-8~~~0-0~~~~~~~8-8~~~8-8-8-8-8-8---|
D||---0-0~~~~~~~8-8~~~0-0~~~~~~~8-8~~~8-8-8-8-8-8---|

should be
Dm Dm
E||---------1~~~------------1~~~--------------------|
B||---------3~~~------------3~~~--------------------|
G||---------2~~~------------2~~~--------------------|
D||---0-0~~~~~~~8-8~~~0-0~~~~~~~8-8~~~8-8-8-8-8-8---|
A||---0-0~~~~~~~8-8~~~0-0~~~~~~~8-8~~~8-8-8-8-8-8---|
D||---0-0~~~~~~~8-8~~~0-0~~~~~~~8-8~~~8-8-8-8-8-8---|

0 reply
PontusGajzler 157 Feb 16, 2014 10:08 AM, edited at 04:08 pm

Watch this live performance of New storms for older lovers by La dispute. http://youtu.be/c8s-RFAdPkU?t=59sIf anything, the way i tabbed it is more accurate i think.

0 reply
Seryth 32 Mar 20, 2014 09:02 AM

Or just listen to the song and to me it doesn't sound right at all... wasn't trying to discredit you, merely trying to offer an alternative which to me sounds more audibly accurate.

guest
You may want to rate the tab now too:
select rating
Wanna post a correction for this tab? Suggest correction