Oops, an error
Loading. Please wait.

Safer In The Forest Love Song For Poor Michigan tab

version 3
version 3

Whole song

8,171 views 18 this week
no commentswrite comment
1 2 3 4 5
x 15
add to favorites
×
Save as Personal and add changes to this tab that will be seen only by you. Learn more ›
×
You can save this tab as Personal to edit and correct it or add notes. All changes will be seen only by you. Learn more »
launch autoscroll
font size
0
reset
how to read this tab
guitar tuner
edit
Autoscroll
slow
fast
+/-
esc
set tempo
stop
Artist: La Dispute
Song: Safer In The Forest/Love Song For Poor Michigan
Album: Wildlife
Tabbed by: gustavoaraujo999@hotmail.com

**March 7th/2015: Added second guitar on Safer In The Forest and tried to fix the mess that 
                  was Love Song For Poor Michigan. Props to version 4 of this tab.


== GUITAR ONE ==

e|---------------------------------------------|
B|-----7---8---7----------5----------0---------|
G|-9-9---9---9---9----7-7---7----5-5---5-------|
D|----------------------------------------[x4]-|
A|---------------------------------------------|
E|---------------------------------------------|

e|---------------------------------------------|
B|---------7-------8-------0-------------------|
G|-----5-------5-------5-------5---------------|
D|-7-7---7---7---7---7---7---7---7--------[x2]-|
A|---------------------------------------------|
E|---------------------------------------------|

e|---------------------------------------------|
B|---------8-------10-------8------------------|
G|-----7-------7--------7-------7--------------|
D|-9-9---9---9---9----9---9---9---8------[x2]--|
A|---------------------------------------------|
E|---------------------------------------------|

e|----------------8----------------------------|
B|---7---10---7-------7---10---7---------------|
G|-8---8----8---8---8---8----8---8-------------|
D|--------------------------------------[x2]---|
A|---------------------------------------------|
E|---------------------------------------------|

e|----------------7--------------|----------------7---8---7------|
B|---7---8---10-------10---8---7-|---7---8---10------------------|
G|-9---9---9----9---9----9---9---|-9---9---9----9---9---9--------|
D|-------------------------------|-------------------------------|
A|-------------------------------|-------------------------------|
E|-------------------------------|-------------------------------|

e|----------------8----------------|---------------10-7----------------|
B|---7---10---7-------7---10---7---|---7---10---7-------10-7\5---5---5-|
G|-8---8----8---8---8---8----8---8-|-8---8----8----------------7---7---|
D|---------------------------------|-----------------------------------|
A|---------------------------------|-----------------------------------|
E|---------------------------------|-----------------------------------|


"Like thunder underwater, he hears it fading
and feels no pain at all."

e|--------------------------------------------------------------------------------------|
B|-------0------0--------0--------0---------------0---------0------------0---------0----|
G|-------0------0--------0--------0---------------0---------0------------0---------0----|
D|-2-2-2-2--2-2-2-2--1-1-1-1--7-7-7-7----12-12-12-12--12-12-12-12--10-10-10----9-9-9----|
A|--------------------------------------------------------------------------------------|
E|---------------------------------[x2]-------------------------------------------------|


(A quick note: ver4 plays pretty much the same as this one:
e|--------------------------------------------------------------------------------------|
B|-------0------0--------0--------0---------------0---------0------------0---------0----|
G|-------0------0--------0--------0---------------0---------0------------0---------0----|
D|-5-5-5-5--5-5-5-5--5-5-5-5--7-7-7-7----12-12-12-12--12-12-12-12--10-10-10----9-9-9----|
A|-7-7-7-7--7-7-7-7--6-6-6-6--7-7-7-7----10-10-10-10--10-10-10-10--10-10-10----101010---|
E|--------------------------------------------------------------------------------------|
Honestly, I think it sounds better than mine, but if you look at videos from the performances, 
the guitarist moves his hand to the end of the neck when he starts this part.)


e|--------------------------------|-----------------------------|
B|--------------------------------|-----------------------------|
G|--------------------------------|-----0------0------0---------|
D|------9-------9-------9-------9-|------------------------0----|
A|---10------10------10------10---|---2------2------2------2----|
E|-8-------8-------8-------8------|-3------3------3------3------|

e|--------------------------------|-----------------------------|
B|--------------------------------|-----------------------------|
G|--------------------------------|-----0------0------0---------|
D|------9-------9-------9-------9-|------------------------0----|
A|---10------10------10------10---|---2------2------2------2----|
E|-8-------8-------8-------8------|-3------3------3------3------|

e|-------------------------------|
B|-------------------------------|
G|-------------------------------|
D|-----7------7------7--------5--|
A|---4------4------4-----4----5--|
E|-5------5------5-----5----7----|

e|--------------------------------|-----------------------------|
B|--------------------------------|-----------------------------|
G|--------------------------------|-----0------0------0---------|
D|------9-------9-------9-------9-|------------------------0--0-|
A|---10------10------10------10---|---2------2------2------2--0-|
E|-8-------8-------8-------8------|-3------3------3------3---2--|

e|--------------------------------|
B|--------------------------------|
G|-----7------7------7------7-----|
D|---7------7------7------7-------|
A|-5------5------5------5-------9-|
E|----------------------------7---|

e|--------------------------------|-----------------------------|
B|--------------------------------|-----------------------------|
G|--------------------------------|-----0------0------0---------|
D|------9-------9-------9-------9-|-----------------------0---0-|
A|---10------10------10------10---|---2------2------2-----2---0-|
E|-8-------8-------8-------8------|-3------3------3-----3---2---|

B|---------------------------------------------------------------|
G|---------------------------------7777777-----------------------|
D|-2--------0--77777777--2-------0-7777777-----------------------|
A|-2-5/7--7/2--77777777--2-5/7-7/2-5555555-----------------------|
E|-0-----------55555555--0---------------------------------------|

e|---------------------------------------------------------------|
B|---------------------------------------------------0-----------|
G|----/9-7----------------------------------/9-7-----0-----------|
D|-2-------9-7-9/12\9---5-7-8-9--8-7\5-----------9-7-9-----------|
A|-2-----------------------------------7-------------10----------|
E|-0-------------------------------------------------------------|


== GUITAR TWO ==

e|---------------------------------|
B|---------------------------------|
G|----------------------------[x4]-|
D|-5--7-/-9--7--5--4--5--4---------|
A|---------------------------------|
E|---------------------------------|

e|------------------------|----------------------------|
B|-------0----------------|--0----0-----0--------0-----|
G|-----5-------5-----5----|----7----------7--------7---|
D|---5-------5-----5------|-5---------5--------5-------|
A|-7-------7-----7---[x2]-|-----------------------[x2]-|
E|------------------------|----------------------------|

e|--------------------------------------|----------|
B|--------------------------------------|----------|
G|-7--------8---------9--------9-8------|-9-8-9-11-|
D|---9-7-9----9-7-9-----9-7-9------9-7--|----------|
A|--------------------------------------|-lasttime-|
E|--------------------------------------|----------|

e|---------------------------------------------------------------|
B|---------------------------------------------------------------|
G|---------------------------------------------------------------|
D|-5--7--9--7--5--4--5--4-------5--7--9--10--9--7---5-7----------|
A|---------------------------------------------------------------|
E|---------------------------------------------------------------|

No Guitar Two for Love Song because I can't make anything of it. Sorry.



            
            
Suggest correction
Creating personal tab
Creating personal tab
You can edit any tab online and save it as your Personal.

You can edit, replace or remove any tab part or add personal notes – all changes will be seen only by you.

Personal tabs can be accessed anytime from any device, even offline.
Learn more »
comments
print report bad tab
guest
You may want to rate the tab now too:
select rating
Wanna post a correction for this tab? Suggest correction