Oops, an error
Loading. Please wait.

Safer In The Forest Love Song For Poor Michigan Tab

version 4
version 4

Whole song

2,268 views 15 this week
1 commentread comment
1 2 3 4 5
accurate
x 3
add to favorites
launch autoscroll
font size
0
reset
how to read this tab
guitar tuner
Tab Pro tools
  • play this tab
  • loop segment
  • change instrument
  • show fretboard
  • metronome
Autoscroll
slow
fast
+/-
esc
set tempo
stop
Contributor
Difficulty
novice
-------------------------------------------------------------------------------
     Safer In The Forest / Love Song For Poor Michigan - La Dispute
-------------------------------------------------------------------------------

E-mail:  egiwolfi (XatX) yahoo (XdotX) de


This is the "Love Song For Poor Michigan" tab, "Safer In The Forest" already has 
excellent tabs.


Tuning: EADGBe

"to a boring desperate city"

The open G and B string are somewhat audible, I'm not certain if all of this here is 
correct. I'm not sure if X1010XXX is actually played. It sounds good though.


e|---------------------------------------------------------------|
B|------(0)----------------------------(0)-----------------------|
G|------(0)--------------(0)-----------(0)-----------------------|
D|---5---5-----12---10----9---------5---5----12---9--10---9------|
A|---7---6-----10---10---10---------7---6----10--10--10--10------|
E|---------------------------------------------------------------|

"are they now building up"

There is some sort of "changeover" chord after X577XX, that I couldn't figure it out, it 
sounds like X000XX, but it's hard to hear. Also, mind the weird chord changes, 
strumming, etc.


e|---------------------------------------------------------------|
B|--0-------0-------0---------0----------(0)---------------------|
G|--4---0---4---0---2---0-/---5---0---7---4---0------------------|
D|--5---0---5---0---2---0-/---4---0---7---5---0---0--------------|
A|--3---2---3---2---0---2-/---3---2---5---3---2---0--------------|
E|------3-------3-----------------3-----------3---2--------------|

"we will rise again..."

e|---------------------------------------------------------|
B|---------------------------------------------------------|
G|-----------------------2------------------------7--------|
D|--2--------2-------0---2----2-------2-------0---7--------|
A|--2----3/5\3---3/5\2---0----2---3/5\3---3/5\2---5--------|
E|--0-------------------------0----------------------------|


e|---------------------------------------------------------|
B|-----------------------------------------------0---------|
G|-----------------------2-----------------------0---------|
D|--2--------2-------0---2----2-------2-2-2------0---------|
A|--2----3/5\3---3/5\2---0----2---3/5\3-3-3------2---------|
E|--0-------------------------0----------------------------|

The second time, a guitar plays this melody:

e|---------------------------------------------------------------------------|
B|---------------------------------------------------------------------------|
G|--4-/7\-5--4--2---4-/7\--4-----4-/7\-5--4--2---4---------------------------|
D|---------------------------------------------------------------------------|
A|---------------------------------------------------------------------------|
E|---------------------------------------------------------------------------|



************************************

| /   slide up
| \   slide down
| h   hammer-on
| p   pull-off
| ~   vibrato
| +   harmonic
| x   Mute note
| b   Bend
| pb  Pre-bend
| br  Bend release
| pbr Pre-bend release
| brb Bend release bend

************************************
comments
We did not receive enough feedback on this tab! Please rate:
print report bad tab
1 2 3 4 5
1 comment total.
0 reply
Andres895 wrote on February 13 2013, 07:45 pm

I think the "x3540x" chord in the second part sounds closer as "x3240x"

I want to post or [tab]
guest
You may want to rate the tab now too:
select rating
Please do not post tabs as comments. Select "correction" instead!