Oops, an error
Loading. Please wait.

Such Small Hands Bass Tab

version 1
version 1

Whole song

Interactive

7,554 views 3 this week
4 commentsread comments
1 2 3 4 5
accurate
x 6
add to favorites
launch autoscroll
font size
0
reset
guitar tuner
Tab Pro tools
  • play this tab
  • loop segment
  • change instrument
  • show fretboard
  • metronome
×
Best way to learn
"Such Small Hands"
Autoscroll
slow
fast
+/-
esc
set tempo
stop
Contributor
G---|----------------------------------------|x2
D---|----------------------------------------|
A---|-------------88---6h81010--8p6h85-------|
E-9/|44---44---4h7---------------------------|

G--------------------------------------------x2|----|
D--------------------------------------------  |----|
A----------------88~---6h8h1010~--8p6h85-----  |----|
E-44~---44~---4/7----------------------------  |-44-|


Not sure about some of it, E-mail me at tmansk8ermystery@hotmail.com if you think it's wrong.

www.ladisputemusic.com
comments
print report bad tab
4 comments total. Showing first comments.
0 reply
isacntdr wrote on March 9 2013, 12:51 pm

good enough

-1 reply
topher8228 wrote on July 11 2014, 07:06 pm

Lack of accuracy. Clearly wrong.

0 reply
topher8228 wrote on July 11 2014, 07:06 pm

You should be in the key of a (starting on the 5th fret of E or just open A) and Idk what you did with the hammer ons and pull offs but they dont sound right

I want to post or [tab]
guest
You may want to rate the tab now too:
select rating
Please do not post tabs as comments. Select "correction" instead!