Oops, an error
Loading. Please wait.

Sunday Morning At A Funeral Tab

7,178 views 6 this week
no commentswrite comment
1 2 3 4 5
x 8
add to favorites
launch autoscroll
font size
0
reset
how to read this tab
guitar tuner
Autoscroll
slow
fast
+/-
esc
set tempo
stop
Help us to improve Ultimate-Guitar.com Take our survey!
×
Author
-------------------------------------------------------------------------------
              Sunday Morning at a Funeral - La Dispute
-------------------------------------------------------------------------------
Tabbed by: Kamdude
Email: triathlete_max@hotmail.com

Tuning: Standard

First Guitar

e|-----------------------|
B|-----5---5----5---5----| 
G|-----------------------|
D|-----------------------| 
A|--3----3---0-----------|
E|-------------3---5-----|

On the eighth one, play this:

e|-----------------------|
B|-----------------------| 
G|-----5---5-----4---4---|
D|-----------------------| 
A|--3----3---0-----------|
E|-------------3---5-----|


2nd guitar

e|---------------------------------------------------------------------------|
B|---------------------------------------------------------------------------|
G|--9----4-----4h5---------------------9----4----4h5----5h7------------------|
D|---------------------5-----------------------------------------------------|
A|---------------------------------------------------------------------------|
E|---------------------------------------------------------------------------|

@ :30

e|---------------------------------------------------------------------------|
B|---------------------------------------------------------------------------|
G|---0h2p0--------0h2p0------------------------------------------------------|
D|----------0h2-----------0h2-----0h2p0--------------------------------------|
A|-----------------------------------------------------------2h3p2-----------|
E|---------------------------------------------------------------------------|

@1:32

e|---------------------------------------------------------------------------|
B|---------------------------------------------------------------------------|
G|---------------------------------------------------------------------------|
D|-----7--6--4--4h5p4--2-(x2)-----------1--2--2h4p2--1----(x2)---------------|     (x2)
A|-----------------------------------2---------------------------------------|
E|---------------------------------------------------------------------------|

@1:53, the part where it gets louder

e|---------------------------------------------------------------------------|
B|---------------------------------------------------------------------------|
G|---------------------------------------------------------------------------|
D|---6-6-6---9-9-9---9-9-9---2-2-2---6-6-6---9-9-9---9-9-9---9-9-9-----------|
A|---4-4-4---7-7-7---6-6-6---0-0-0---4-4-4---7-7-7---6-6-6---6-6-6-----------|
E|---------------------------------------------------------------------------|

e|---------------------------------------------------------------------------| I'm too lazy
B|---------------------------------------------------------------------------| too show the
G|---------------------------------------------------------------------------| strumming
D|---6-6-6---9-9-9---9-9-9---2-2-2---6-6-6---9-9-9---9-9-9---9-9-9-----------| but it       
A|---4-4-4---7-7-7---6-6-6---0-0-0---4-4-4---7-7-7---6-6-6---6-6-6-----------| shouldn't 
E|---------------------------------------------------------------------------| be hard.


e|---------------------------------------------------------------------------|
B|---------------------------------------------------------------------------|
G|---------------------------------------------------------------------------|
D|-----7--6--4--4h5p4--2-(x2)-----------1--2--2h4p2--1----(x2)---------------|     (x2)
A|-----------------------------------2---------------------------------------|
E|---------------------------------------------------------------------------|

Well that should be it. Let me know what you think by rating or commenting
Suggest correction
comments
print report bad tab
guest
You may want to rate the tab now too:
select rating
Wanna post a correction for this tab? Suggest correction