Oops, an error
Loading. Please wait.

The Most Beautiful Bitter Fruit Bass Tab

version 2
version 2

Whole song

877 views 1 this week
no commentswrite comment
1 2 3 4 5
please rate
add to favorites
launch autoscroll
font size
0
reset
guitar tuner
Tab Pro tools
  • play this tab
  • loop segment
  • change instrument
  • show fretboard
  • metronome
Autoscroll
slow
fast
+/-
esc
set tempo
stop
Contributor
Difficulty
advanced
Song: The Most Beautiful Bitter Fruit
Artist: La Dispute
Album: Wildlife
Standard tuning (G,D,A,E)
*any questions? email me; shepherds.pie@hotmail.com*

G|--------------------------------------------------------------------|
D|--------------------------------------------------------------------|
A|------------------------1010-99------0700--070--00--0700-0----------|
E|-0000--000--00--000--0---------------------------------------33--22-|
 (repeat)

|-----------------------------------------------------------|
|-----------------------------------------------------------|
|-7777777--5555555--3333333---00-22------2222222--3333333---|
|-----------------------------------333---------------------|

|--------------------|
|--------------------|
|-0000000--3333/555--|
|--------------------|

|-------------------------------------------------------------------------|
|-------------------------------------------------------------------------|
|-7777777--5555555--3333333---00-22------2222222--3333333--------7--7--7\-|
|-----------------------------------333--------------------0--0-----------|

|----------------------------------------------------------------|
|----------------------------------------------------------------|
|-3333--222-32--------------3333--22-55-777---101010-1099-9------|
|-------------30---330330----------------------------------1010--|
(repeat this another 2 times)

|------------------------------|
|------------------------------|
|-3333--2222--3333---00-22-----|
|--------------------------33--|

|-----------------------------------------------------------|
|-----------------------------------------------------------|
|-7777777--5555555--3333333---00-22------2222222--3333333---|
|-----------------------------------333---------------------|

|--------------------|
|--------------------|
|-0000000--3333/555--|
|--------------------|

|---------------------------------------------------------------------|
|---------------------------------------------------------------------|
|-7777777--5555555--3333333---00-22------2222222--3333333--------5--5-|
|-----------------------------------333--------------------0--0-------|

|---7----------------------------------------------|
|--------------------------------------------------|
|-5----5h7-3-3333-222-------555h7--33--2-22-22222--|
|--------------------0-----------------------------|
(repeat this 2 more times)

|-----------------------------------------------|
|-----------------------------------------------|
|-1010-999----------------------------1010-999--|
|-----0----0-0000000-0000000-0000000------0-----|

|-------------------------|
|-------------------------|
|----7---7--7---7--7---7--|
|--55-555-55-555-55-555---|

|------------------------------------------------|
|------------------------------------------------|
|--------------------------------------1010-999--|
|-33-0-222-0-0000000-0000000-0000000-------0-----|

|------------------------------------------------|
|------------------------------------------------|
|----7---7--7---7--7---7--7----------------------|
|--55-555-55-555-55-555-55-555--000--000-000-00--|

and that's it :) ! this one's always a fun one to play, so give it a shot and see how 
you go :) any problems, then my email is at the top of the page. rock on guys! - shepherdspie.
comments
We did not receive enough feedback on this tab! Please rate:
print report bad tab
1 2 3 4 5
I want to post or [tab]
guest
You may want to rate the tab now too:
select rating
Please do not post tabs as comments. Select "correction" instead!