Oops, an error
Loading. Please wait.

Why It Scares Me Bass Tab

version 1
version 1

Whole song

2,754 views 6 this week
no commentswrite comment
1 2 3 4 5
1 last vote to show rating
add to favorites
launch autoscroll
font size
0
reset
guitar tuner
Autoscroll
slow
fast
+/-
esc
set tempo
stop
Help us to improve Ultimate-Guitar.com Take our survey!
×
Author
Difficulty
novice
-------------------------------------------------------------------------------
			   Why It Scares Me - La Dispute
-------------------------------------------------------------------------------

Tabbed By : Kamdude
e-mail: triathlete_max@hotmail.com

Tuning: Standard

[Muted Guitar Intro]

G|-------|
D|-------|
A|-------|
E|-5/12--|

G|--------------------------------------|
D|--------------------------------------|
A|--------------------------------------|
E|-0-0-0-0-0-0-0-0-0-0-0-0-0-0-0-0------|


"At times I've shouted out unprovoked"
G|---------------------------------------------------------------------------|
D|---------------------------------------------------------------------------|
A|---------------------------------------------------------------------------|
E|-0---0-0-0-0-0-0-3-3-3-3-2-2-2-2/-5---5-5-5-5-5-5/8-8-8-8-7-7-7-7----------|

G|---------------------------------------------------------------------------|
D|---------------------------------------------------------------------------|
A|---------------------------------------------------------------------------|
E|-0---0-0-0-0-0-0-3-3-3-3-2-2-2-2/-5---5-5-5-5-5-5---8-8-8---7-7-7----------|

G|---------------------------------------------------------------------------|
D|---------------------------------------------------------------------------|
A|---------------------------------------------------------------------------|
E|-0---0-0-0-0-0-0-3-3-3-3-2-2-2-2/-5---5-5-5-5-5-5/8-8-8-8-7-7-7-7----------|

G|---------------------------------------------------------------------------|
D|---------------------------------------------------------------------------|
A|---------------------------------------------------------------------------|
E|-0---0-0-0-0-0-0-3-3-3-3-2-2-2-2/-5---5-5-5-5-5-5---8-8-8---7-7-7----------|

"Maybe I just think about it all so much"
G|---------------------------------------------------------------------------|
D|---------------------------------------------------------------------------|  X4
A|-----------------------3---------------------------------------------------|
E|-0---0-0-0-0-0-0-3-3-3---2-2-2-2/-5---5-5-5-5-5-5/8-8-8-8-7-7-7-7----------|

"Maybe it's just as much"        "but if we're still here"
G|------------------|              G|---------------|
D|------------------|              D|---------------|
A|-3~-------2~------|  X3          A|--0~--------2~-|
E|------------------|              E|---------------|



G|------------------------|                      
D|------------------------|               
A|------------------------| X4 
E|-0~------3~--2~--5~-----|


"and if my heart just stops"

G|---------------------------------------------------------------------------|
D|---------------------------------------------------------------------------|
A|---------------------------------------------------------------------------|
E|--0----3---2---5------------0-----3---2---8--------------------------------|


Suggest correction
Give kudos to tab author, rate the tab!
1 2 3 4 5
comments
print report bad tab
guest
You may want to rate the tab now too:
select rating
Wanna post a correction for this tab? Suggest correction