Oops, an error
Loading. Please wait.

You And I In Unison Bass Tab

version 1
version 1

Whole song

3,342 views 3 this week
no commentswrite comment
1 2 3 4 5
please rate
add to favorites
launch autoscroll
font size
0
reset
guitar tuner
Autoscroll
slow
fast
+/-
esc
set tempo
stop
Help us to improve Ultimate-Guitar.com Take our survey!
×
Contributor
Difficulty
ElExar 173
novice
Artist: La Dispute
Song: You and I in unison
Album: Wildlife
Tabbed by: ElExar
Email: ElExar@freenet.de

The song is difficult to write down as it is so unlinear, but its easier than it looks.
Some notes may be counted wrong, but I got tired from all that counting.

What will I find? ...
G|-------------------------|
D|-------------------------|
A|-------------------------|
E|-11-11-9-7-7-6-6-13-13---|      4x

Some days I swear I ...
G|---------------------------------------------------------|
D|---------------------------------------------------------|
A|---------------------------------------------------------|
E|-11-11-9-11-11--9-9-9--7-7-7-7-7-7-7-7-6-6-6-6-6-6-6-6---|      3x

It's like the warmest ...
G|--------------------------------------------------|
D|--------------------------------------------------|
A|--------------------------------------------------|
E|-4-4-2-4-4-222--7-7-7-7-7-7-7-7-9-9-9-9-9-9-9-9---|


pause   from    - I have the memory climb down ...
        till    - ... That's how I choose to remember it.


Some nights are ...
G|------------------------------------------------------------------------------------------------|
D|------------------------------------------------------------------------------------------------|
A|------------------------------------------------------------------------------------------------|
E|11-11-9-9-11-11-9-9-9--11-11-9-9-11-11-9-9-9--4-4-2-2-4-4-2-2-2--7-7-7-7-7-7-7-7-9-9-9-9-9-9-9-9|
    2x

                But the truth is
G|------------------------------------------------|
D|------------------------------------------------|
A|------------------------------------------------|
E|-11-11-9-9---4-4-4-4-4-4-4-4--4-4-4-4-4-4-4-4---|

G|----------------------------------------------|
D|----------------------------------------------|
A|----------------------------------------------|
E|-11-11-9-9--4-4-4-4-4-4-4-4-6-6-6-6-6-6-6-6---|        2x

G|------------------------------------|
D|------------------------------------|
A|------------------------------------|
E|-4-4-4-4-4-4-4-4--9-9-9-9-9-9-9-9---|

I tear this flower from the back of the dress.
G|--------------------------------------------------------------------------------------|
D|--------------------------------------------------------------------------------------|
A|--------------------------------------------------------------------------------------|
E|-11-11-11-11-11-11-11-11-11-11-11-11-11-11-11-11---4-4-4-4-4-4-4-4--9-9-9-9-9-9-9-9---|

                        I blur out everything else, just blur out everything else.
G|-----------------------------------------------------------------------------------|
D|-----------------------------------------------------------------------------------|
A|-----------------------------------------------------------------------------------|
E|-11-11-11-11-11-11-11-11-11-11-11-11-11-11-11-11--7-7-7-7-7-7-7--6-6-6-6-6-6-6-6---|

G|-----------------------------------------------------------------------|
D|-----------------------------------------------------------------------|
A|-----------------------------------------------------------------------|
E|--4-4-4-4-4-4-2-4--4-4-4-4-4-4-4-4----7-7-7-7-7-7-7--9-9-9-9-9-9-9-9---|

G|----------------------------------------------------------------------------------|
D|----------------------------------------------------------------------------------|
A|----------------------------------------------------------------------------------|
E|-11-11-11-11-11-11-9-11--11-11-11-11-11-11-------7-7-7-7-7-7-7--6-6-6-6-6-6-6-6---|

G|----------------------------------------------------------------------|
D|----------------------------------------------------------------------|
A|----------------------------------------------------------------------|
E|-4-4-4-4-4-4-2-4--4-4-4-4-4-4-4-4----7-7-7-7-7-7-7--9-9-9-9-9-9-9-9---|

G|--------------------------------|
D|--------------------------------|
A|--------------------------------|
E|-11-11-9-11-11-11-11-11-11-11---|      4x

                I will sing sweetly
G|----------------------------------------------|
D|----------------------------------------------|
A|----------------------------------------------|
E|-11-11-9-9-4-4-4-4-4-4-4-4--6-6-6-6-6-6-6-6---|        2x

G|------------------------------------------------------------------------------------|
D|------------------------------------------------------------------------------------|
A|------------------------------------------------------------------------------------|
E|-4-4-4-4-4-4-4-4-9-9-9-9-9-9-9-9--11-11-11-11-11-11-11-11-11-11-11-11-11-11-11-11---|
          x2


...
comments
We did not receive enough feedback on this tab! Please rate:
print report bad tab
1 2 3 4 5
I want to post or [tab]
guest
You may want to rate the tab now too:
select rating
Please do not post tabs as comments. Select "correction" instead!