Oops, an error
Loading. Please wait.

Insane Tab

16 views 3 this week
no commentswrite comment
1 2 3 4 5
3 more votes to show rating
add to favorites
launch autoscroll
font size
0
reset
how to read this tab
guitar tuner
Autoscroll
slow
fast
+/-
esc
set tempo
stop
Help us to improve Ultimate-Guitar.com Take our survey!
×
Author
Difficulty
Tuning
advanced
D# G# C# F# A# D#
TUNING
Pasquo EbAbDbGbBbEb
Fra EbAbDbGbBbEb

[Intro]
Pasquo

Eb|-0---0---0|
Ab|-3---3---3|
Gb|-3---3---3|
Db|-0---2---0|
Ab|-x---3---x|
Eb|-x---x---x|

(repeats full song, different strumming)

[Lead] 
(fra) (0:09-0:12)

Eb|--15/--18--15|
Ab|-------------|
Gb|-------------|
Db|-------------|
Ab|-------------|
Eb|-------------|

(0.12-)

Eb|------------------------------------------------------|
Ab|------------------------------------13----------------|
Gb|15(x2)---14-15-14-12---12-14-15(x2)---15-14-12--------|
Db|------------------------------------------------------|
Ab|------------------------------------------------------|
Eb|------------------------------------------------------|
 

************************************

| b  Bend
| x  Dead note
| /  Slide up 

************************************
Suggest correction
Give kudos to tab author, rate the tab!
1 2 3 4 5
comments
print report bad tab
guest
You may want to rate the tab now too:
select rating
Wanna post a correction for this tab? Suggest correction