Oops, an error
Loading. Please wait.

Bailando Como Mono tab

version 4
version 4

Whole song

53 views 1 this week
no commentswrite comment
1 2 3 4 5
3 more votes to show rating
add to favorites
×
Save as Personal and add changes to this tab that will be seen only by you. Learn more ›
×
You can save this tab as Personal to edit and correct it or add notes. All changes will be seen only by you. Learn more »
launch autoscroll
font size
0
reset
how to read this tab
guitar tuner
edit
Autoscroll
slow
fast
+/-
esc
set tempo
stop
SOL RE RE7 SOL SOL RE RE7 SOL

Punteo:

e|-7-7-5-3---3-3--5-7--8--8--8--8--8--5-5-7--8-7-5-7-3-|
B|-8-8-7-3--3-3---7-8-10-10-10-10-10--7-7-8-10-8-7-8-3-|

             SOL                  RE
Bailando como mono espero encontrarme
 RE7                           SOL
bailando en fiestas perdidas (x2)


      SOL          RE
Yo lo soñe yo lo soñe
 RE7                           SOL
me vi bailando con la cara enferma
      SOL                        RE
y sin saber que hacer como testarudo
     RE7                  SOL
me fui cayendo a la primera

        SOL
Y me cae y me cae la desesperanza,
                    RE
se me cae toda el alma tambien
        RE7                          SOL
vamos a tener que comenzar todo de nuevo

          SOL                  RE
afuera el miedo arriba las ganas
        RE7                           SOL
hay que ponerse duro para ponerse entero


Bailando como mono espero encontrarme
bailando en fiestas perdidas
(x2)

(las mismas notas durante toda la cancion)

SOLO GUITARRA

e|-10-10-10-10-10-8---7-7-7-7-7-8---2-2-2-2-2-3-2-|
B|-12-12-12-12-12-10--8-8-8-8-8-10--3-3-3-3-3-5-3-|
G|------------------------------------------------|


e|-2-2-2-2-2-3--2-2-2-2-2-3--7-7-7-7-7-8---7-7-7-7-7-8--|
B|-3-3-3-3-3-5--3-3-3-3-3-5--8-8-8-8-8-10--8-8-8-8-8-10-|
G|------------------------------------------------------|


e|-10-10-10-10-10-8---7-7-7-7-7-8---2-2-2-2-2-3-2--|
B|-12-12-12-12-12-10--8-8-8-8-8-10--3-3-3-3-3-5-3--|
G|-------------------------------------------------|


e|-2-2-2-2-2-3--2-2-2-2-2-3--7-7-7-7-7-8---7-7-7-7-7--|
B|-3-3-3-3-3-5--3-3-3-3-3-5--8-8-8-8-8-10--8-8-8-8-8--|
G|----------------------------------------------------|


Ariba la fiesta mama, arriba la fiesta mama
hay que ponerse duro para ponerse entero
y si bien bien bien yo no te trate bien
voy a hacerte el fuego


Bailando como mono espero encontrarme
bailando en fiestas perdidas
(x2)


Dancing like monkey monkey to find myself
dancing in this forgotten party
(x2)


Bajando desde Olmué
viene un batallon de gente bacilando
y celebrando, y sonriendo,
y bacilando bacilando


Bailando como mono espero encontrarme
bailando en fiestas perdidas
(x2)

Final: SOL

e|-7-7----|
B|-8-8-7-8|

ACORDES: tocar las tres primeras cuerdas, suena mejor

  SOL   RE    RE7

E -3-   -2-   -2-
B -3-   -3-   -1-
G -4-   -2-   -2-

PD: en vez de tocar re7 tocarloen re nomas = suena la raja

            
            
Suggest correction
Creating personal tab
Creating personal tab
You can edit any tab online and save it as your Personal.

You can edit, replace or remove any tab part or add personal notes – all changes will be seen only by you.

Personal tabs can be accessed anytime from any device, even offline.
Learn more »
Give kudos to tab author, rate the tab!
1 2 3 4 5
comments
print report bad tab
guest
Wanna post a correction for this tab? Suggest correction