Oops, an error
Loading. Please wait.

Magia tab

version 2
version 2

Whole song

70 views 3 this week
no commentswrite comment
1 2 3 4 5
3 more votes to show rating
add to favorites
×
Save as Personal and add changes to this tab that will be seen only by you. Learn more ›
×
You can save this tab as Personal to edit and correct it or add notes. All changes will be seen only by you. Learn more »
launch autoscroll
font size
0
reset
how to read this tab
guitar tuner
edit
Autoscroll
slow
fast
+/-
esc
set tempo
stop
**********************************************************************
Estructura
**********************************************************************

Intro x2
Estrofa x2
Estribillo
Intro x2
Estrofa x3
Estribillo
Solo
Estribillo
Final


**********************************************************************
Intro (sobre estrofa)
**********************************************************************

e|--------------------------|-------------------|
B|--------------------------|-------------------|
G|-9/11--11/9-----------9---|-------------------|
D|------------10/11--11---7-|-----7--9--9/11--9-|
A|--------------------------|-7/9---------------|
E|--------------------------|-------------------|

e|------------------|---------|
B|------------------|---------|
G|------------------|----9----|
D|-7--9--7--6--7--9-|-11---11-|
A|------------------|---------|
E|------------------|---------|

**********************************************************************
Estrofa
**********************************************************************

Rasgueo sobre:

|1-2 -3-4  |5-6-7   -8  |
|A-E7-G-F#7|E-D-B+C#-D+E|

(quedaría así)

A            E7     G              F#7
Mil años de soledad     y tanto desierto
E             D      B5     C#5    D5       E
Hicieron del muerto, polvo, joyas, cuentos, magia
A            E7          G                  F#7
Negra cuando te acercas, te siento en el viento
E             D      B5    C#5    D5     E
Viernes en caseros, los tambores, ladran perros


**********************************************************************
Estribillo
**********************************************************************

Rasgueo sobre:

|1-2 -3-4  |5-6 -7-8  |9 -10-11-12|
|D-Dm-A-F#m|D-Dm-A-F#m|Bm-Dm-E -A |

(quedaria asi)

  D            Dm           A                   F#m
Haceme desaparecer, grito león y a la sierra se fue
    D                 Dm          A                    F#m
El cielo escucho y apagó toda esa sed y el ahora esta bien
   Bm                 Dm         E   A
Historias de magia de brujos que dicen


**********************************************************************
Solo
**********************************************************************

e|-----------------------------------|
B|-----------9h10p9----9-------------|
G|------9h11--------11---11-9---9h11-|
D|-9h11-----------------------9------|
A|-----------------------------------|
E|-----------------------------------|

e|--------------------------------|
B|--------------------------------|
G|-11h13p11-9h11p9----9-----------|
D|-----------------11---11-9------|
A|---------------------------12-9-|
E|--------------------------------|


e|------------------------------|
B|------------------------------|
G|--------------------9---------|
D|---------------9h11---11-9----|
A|----------9h11-------------12-|
E|-12-12-12---------------------|

e|----------------------------------------|
B|--------------------------------10-12-9-|
G|---------------10h13-9-------11---------|
D|----------9h11---------11-12------------|
A|-12-12-12-------------------------------|
E|----------------------------------------|

e|--------------------|--------------------|
B|--------12-14-------|-12h14--------------|
G|-12/14--14-------13-|-------12--14p12-11-|
D|--------------------|--------------------|
A|--------------------|--------------------|
E|--------------------|--------------------|

e|----------12--------------------|
B|-12h14-15----15--14h15p14-12----|
G|-----------------------------14-|
D|--------------------------------|
A|--------------------------------|
E|--------------------------------|

e|-------------------------------------|
B|-------12-------14-------15-------17-|
G|-------------------------------------|
D|-12h14----14h16----15h16----17h19----|
A|-------------------------------------|
E|-------------------------------------|


**********************************************************************
Final
**********************************************************************

Sobre A con punteo:

e|----------------|
B|----------------|
G|-9h11p9---------|
D|--------11-9----|
A|-------------12-|
E|----------------|

**********************************************************************
Bueno, aca esta la mejor canción de la franela hasta
ahora para mi y ahora que van a sacar su segundo disco.
La termine, esta completa con el solo y creo que no
tiene nada mal. Espero que les guste y la puedan tocar.
Saludos para toda la familia franelera desde Martin Coronado.
Suggest correction
Creating personal tab
Creating personal tab
You can edit any tab online and save it as your Personal.

You can edit, replace or remove any tab part or add personal notes – all changes will be seen only by you.

Personal tabs can be accessed anytime from any device, even offline.
Learn more »
Give kudos to tab author, rate the tab!
1 2 3 4 5
comments
print report bad tab
guest
Wanna post a correction for this tab? Suggest correction