Oops, an error
Loading. Please wait.

Sirena tab

version 1
version 1

Whole song

28 views 1 this week
no commentswrite comment
1 2 3 4 5
3 more votes to show rating
add to favorites
×
Save as Personal and add changes to this tab that will be seen only by you. Learn more ›
×
You can save this tab as Personal to edit and correct it or add notes. All changes will be seen only by you. Learn more »
launch autoscroll
font size
0
reset
how to read this tab
guitar tuner
edit
Autoscroll
slow
fast
+/-
esc
set tempo
stop
Riff (3 rondas, la 2da y 3ra acompañada por los acordes)

E|-----------------|-----------------|-----------------|-----------|
B|-----------------|-----------------|-----------------|-----------|
G|-----------------|-----------------|-----------------|-----------|
D|-----7-7-6-6-4-4-|-----6-6-4-4-----|-----6-6-4-4-----|-----------|
A|-----------------|-4-4---------7-7-|-------------7-7-|-----9-9~--|
E|-5-5-------------|-----------------|-7-7-------------|-6-6-------|

  A                 C#m               E                 F#


Estrofas (A - C#m - E - F#)

Que te hara crecer? Amor de sudestada
Empapandome con poquito y nada
Te enredaste en mis pies, como lo hacen las algas
Regalandome tu liberad, ahora que estoy atrapado

A donde iras a lucir tus venenos?
Secandote al sol, se te fueron los miedos
A donde iras con tus ojitos nuevos?
Tan lejos del mal, tal vez demasiado lejos

E       C
Desnudo frente al mar
E      C
Encaré sin pensar
E          C
Que estamos en el sur
E           C
y hay mucha vida acá abajo
E        C
Inevitable al entrar
E      C
Sentir tu fuerza en mis brazos
E               C
Que se cansaron de nadar
E               F#
En este amor algo salado

(2 rondas acompañadas por acordes)
E|-----------------|-----------------|-----------------|-----------|
B|-----------------|-----------------|-----------------|-----------|
G|-----------------|-----------------|-----------------|-----------|
D|-----7-7-6-6-4-4-|-----6-6-4-4-----|-----6-6-4-4-----|-----------|
A|-----------------|-4-4---------7-7-|-------------7-7-|-----9-9~--|
E|-5-5-------------|-----------------|-7-7-------------|-6-6-------|

  A                 C#m               E                 F#

Que te hará mover, dicen que es la luna
desde el muelle puedo ver algo de tu locura
Te enredaste en mis pies como lo hacen las algas
llevándome a la profundidad,dónde nadie me salva

E       C
Desnudo frente al mar
E      C
Encaré sin pensar
E          C
Que estamos en el sur
E           C
y hay mucha vida acá abajo
E        C
Inevitable al entrar
E      C
Sentir tu fuerza en mis brazos
E               C
Que se cansaron de nadar
E               C
En este amor algo salado
E               C
Y se cansaron de nadar
E               F#
En este amor algo salado

G#m            E            B    F#
Cuando llorabas yo te escuché?
G#m            E           B     D#
Cuando llorabas te escuché?

G#m            E            B    F#
Cuando llorabas yo te escuché?
G#m            E           B     D#
Cuando llorabas yo te escuché?
G#m            E            B    F#
Cuando llorabas yo te escuché?
G#m            E           B     D#
Cuando llorabas yo te escuché?


(3 rondas)
E|-----------------|-----------------|-----------------|-----------|
B|-----------------|-----------------|-----------------|-----------|
G|-----------------|-----------------|-----------------|-----------|
D|-----7-7-6-6-4-4-|-----6-6-4-4-----|-----6-6-4-4-----|-----------|
A|-----------------|-4-4---------7-7-|-------------7-7-|-----9-9~--|
E|-5-5-------------|-----------------|-7-7-------------|-6-6-------|

  A                 C#m               E                 F#

            
            
Suggest correction
Creating personal tab
Creating personal tab
You can edit any tab online and save it as your Personal.

You can edit, replace or remove any tab part or add personal notes – all changes will be seen only by you.

Personal tabs can be accessed anytime from any device, even offline.
Learn more »
Give kudos to tab author, rate the tab!
1 2 3 4 5
comments
print report bad tab
guest
Wanna post a correction for this tab? Suggest correction