Oops, an error
Loading. Please wait.

Solos Tu Y Yo tab

version 1
version 1

Whole song

52 views 1 this week
no commentswrite comment
1 2 3 4 5
3 more votes to show rating
add to favorites
×
Save as Personal and add changes to this tab that will be seen only by you. Learn more ›
×
You can save this tab as Personal to edit and correct it or add notes. All changes will be seen only by you. Learn more »
launch autoscroll
font size
0
reset
how to read this tab
guitar tuner
edit
Autoscroll
slow
fast
+/-
esc
set tempo
stop
Holap, saludos a todos desde peru, les dejo esta tablatura
que hice con mucho cariño para toa esa gente que le guste
el grupo la frontera o heroez del silencio?
Esta cancion se la dedico a un viejo amor que se fue...  Charito.
aullido_lunatico@


Grupo:   LA frontera
Canción: solos tu y yo
Álbum:   palabras de fuego


Ohhhhh   ohhhhhhh


B5       D5       A5       E5           B5       D5      A5       E5


E:|-------0-2-0---0-------------------------------0-2-0---0--------------
B:|-0---3-------3---3-1-0-3-0-------------0--3----------3------3-1-0-3-0-
G:|-----------------------------3-1-0------------------------------------
D:|----------------------------------------------------------------------
A:|----------------------------------------------------------------------
E:|----------------------------------------------------------------------


00:30

B5                    D5   A5                   E5
Banderas que se agitarán    al otro lado del telón

B5                    D5   A5                   E5
Secretos aun sin desvelar  testigos de una rebelión

B5                    D5   A5               E5
Cruzamos la línea del sur  dijiste ?solo importas tu?

B5                 D5   A5                   E5
Nos abrazamos al caer   la niebla nos hará vencer.


G          Em         D           A
Puedo escuchar voces en la oscuridad

G                   Em
Vienen por ti y por mí.


(rueda for ,rueda for)


1:09

B5                    D5  A5              E5
promesas que se perderán   en un instante si te vas

B5                   D5   A5                  E5
Caricias que descubrirán   que estás hecha de soledad

B5               D5   A5               E5
disparos al amanecer!  besándonos tras el cristal


B5                    D5   A5                   E5
Palabras aun sin pronunciar  Que algún día se escucharán.


G          Em         D           A
Puedo escuchar voces en la oscuridad         (rueda for rueda for)

G                   Em
Vienen por ti y por mí.


G      D    Bm   MIm
Es  difícil  decidir

G        D   Bm      MIm
Si no estás cerca de mi

G         D   Bm      MIm
No hay banderas bajo el sol

G         D    Bm              MIm
Cuando estamos solos...       tu y yo.


2:07

B5                    D5   A5                   E5


E:|-------0-2-0---0-------------------------------0-2-0---0--------------
B:|-0---3-------3---3-1-0-3-0-------------0--3----------3------3-1-0-3-0-
G:|-----------------------------3-1-0------------------------------------
D:|----------------------------------------------------------------------
A:|----------------------------------------------------------------------
E:|----------------------------------------------------------------------


B5                    D5  A5                 E5
Y nuestras vidas pasarán  Y nuestro amor se perderá

B5                    D5  A5                   E5
Las balas cruzadas serán  Testigos de nuestro final


G          Em         D           A
Puedo escuchar voces en la oscuridad

G                   Em
Vienen por ti y por mí.


G      D     Bm   MIm
Es  difícil  decidir

G        D  Bm     MIm
Si no estás cerca de mi

G         D     Bm      MIm
No hay banderas bajo el sol


G        D      Bm             MIm
Cuando estamos solos...       tu y yo.


3:06

Solo de guitarra    [próximamente]


G      D    Bm   MIm
Es  difícil  decidir

G       D   Bm     MIm
Si no estás cerca de mi

G         D     Bm      MIm
No hay banderas bajo el sol

G         D    Bm             MIm
Cuando estamos solos...       tu y yo.


(Rifts raros)

De nuevo el Intro  y  un punteo final...

  4:22

E:|------- --------0-1h2-2b-2~~~0--------0h1-1-0--2-0--------------------
B:|--0---0-0-3-0-3-------------------------------------3-----0-0-----0---
G:|---------------------------------------------------------------2------
D:|----------------------------------------------------------------------
A:|----------------------------------------------------------------------
E:|----------------------------------------------------------------------


Esta es la primera tablatura que publico .
un saludo desde peru y ojala que sigan publicando mas tablaturas
 bueno bye .Y eso es todo,
 si encuentran alguna falla por favor avisenme gracias?

            
            
Suggest correction
Creating personal tab
Creating personal tab
You can edit any tab online and save it as your Personal.

You can edit, replace or remove any tab part or add personal notes – all changes will be seen only by you.

Personal tabs can be accessed anytime from any device, even offline.
Learn more »
Give kudos to tab author, rate the tab!
1 2 3 4 5
comments
print report bad tab
guest
Wanna post a correction for this tab? Suggest correction