Oops, an error
Loading. Please wait.

El Loco Del Parque tab

version 1
version 1

Whole song

by La Fuga
14 views 1 this week
no commentswrite comment
1 2 3 4 5
3 more votes to show rating
add to favorites
×
Save as Personal and add changes to this tab that will be seen only by you. Learn more ›
×
You can save this tab as Personal to edit and correct it or add notes. All changes will be seen only by you. Learn more »
launch autoscroll
font size
0
reset
how to read this tab
guitar tuner
edit
Autoscroll
slow
fast
+/-
esc
set tempo
stop
Aquí envío la transcripción de esta
genial canción de la Fuga,
espero que os suene bien,
intentad tocarla siempre con distorsión
y con quintas, excepto en el estribillo
 que arpegia los acordes.
La canción es sencilla, escuchadla bien
antes de tocarla para sacar
bien el ritmo y saldrá sola.
La tónica está en D#m.

INTRO:
D#m-C#-A#-B-C#
Se toca dos veces, al final de cada una, una guitarra hace:
   Pm---
E||-------------------|
B||-------------------|
G||-------------------|
D||-------------------|
A||-2-4-2-4/6---------|
E||-------------------|

1º ESTROFA:
En la estrofa una guitarra deja sonar los acordes
y la otra hace un ritmillo con palm muy fácil
D#m
Por la tarde le puedo ver
C#
En el parque con gesto cansado
B
Con la guitarra entre las manos
A#
Con mil palomas siempre a su lado
D#m
Una sonrisa entre los labios
C#
Nunca estuvieron tan cansados
B
Una vieja y sucia camisa
A#
No fueron buenos los tiempos pasados

PUENTE:
   D#m                       C#
D||----4----6----4----4----4|----3----4----3----4----3|
A||-66---66---66---66---66--|-44---44---44---44---44--|

   A#                        B       C#
D||-------------------------|--------6-x8-86|
A||----5----8----5----8----5|-9-9-97-4-x6-64|
E||-66---66---66---66---66--|-7-7-77--------|

   D#m                       C#
D||----4----6----4----4----4|----6----8----6----8----6|
A||-66---66---66---66---66--|-88---88---88---88---88--|

   A#                         B       C#
D||----8----9----11----9----8|--------6-x8-86|
A||-99---99---99----99---99--|-9-9-97-4-x6-64|
E||--------------------------|-7-7-77--------|


2º ESTROFA:
D#m
Todo un hombre todo corazón
C#
Nunca supo decir no
B
Fue feliz como nunca fui yo
A#
Algo sucedió
D#m
Mala vida mala situación
C#
Cucharas en el callejón
B
Suenan disparos al amanecer
A#
Amigos que nunca lo son

ESTRIBILLO:
    Aquí arpegia un poco:
D#m
Canta tu canción
C#
Te quiero escuchar
B
Triste pero verdad
A#
Sabia soledad
D#m
Canta tu canción
C#
Te quiero escuchar
B
Triste pero verdad
A#
Sabia soledad

    Esto que viene ahora tiene el mismo ritmo que el estribillo:
D#m
Dicen que está loco
C#
Porque no es como ellos
D#m
Dicen que está loco
B            C#
Porque ahora vive de sueños
D#m
Dicen que está loco
C#
Porque no es como ellos
D#m
Dicen que está loco
B            C#
Porque ahora vive de sueños

PRE-SOLO:
La primera vez e igual que la intro,
 en la segunda una guitarra entra
 con el segundo rift del puente.


SOLO:
LOS acordes son todo el rato:
D#m-C#-G#-A#
El solo es más o menos así,
aunque seguramente en algunas
cosas cambia, y hay frases que se
repiten más veces de las que he puesto,
para que os suene bien tendréis que escucharlo
unas cuantas veces antes.

E||--------------------------9696---696696969/11----1414b1411--11|
B||9b-97-99b-9b-97-----9b-97------9--------------------------14--|
G||----------------88b-------------------------------------------|
D||--------------------------------------------------------------|
A||--------------------------------------------------------------|
E||--------------------------------------------------------------|

E||--------------------------------------------------------------|
B||-14-11-1411--11-----------------------------------------------|
G||-----------13--13-11-13-11-1313b-13b13-11-11------------------|
D||----------------------------------------13-13-11-13-11-11-----|
A||------------------------------------------------------13-13-11|
E||--------------------------------------------------------------|

E||--------------------------------------------------------------|
B||-----------------------------------------------------------11-|
G||-----------------------------------------11-13-13b-13-11-13---|
D||-------------------------11-13b-13-11-13----------------------|
A||-13-11--------------11-13-------------------------------------|
E||-------14-11--11-14-------------------------------------------|

E||---------------------------------------------------------------|
B||-14-14b-16b-16b16---11-11-1411--11-14111411--11-14b-1411-------|
G||------------------13----------13-----------13------------13b13b|
D||---------------------------------------------------------------|
A||---------------------------------------------------------------|
E||---------------------------------------------------------------|

E||---------1411-------------1411--------------------------16-1816|
B||---11-14-----14111411--11-----14111411--11-14b-14b-14/16-------|
G||-13------------------13---------------13-----------------------|
D||---------------------------------------------------------------|
A||---------------------------------------------------------------|
E||---------------------------------------------------------------|

Esto se repite un montón de veces
E||---161816--161816----|
B||-18------18------18--|
G||---------------------|
D||---------------------|
A||---------------------|
E||---------------------|

Después hace:
E||----------------------------------------------------------------|
B||---14-1616161614------------------------------11----------------|
G||-15-------------1513-13b13b13b13b13b13---11-----13-11-13b13-11--|
D||---------------------------------------13---13----------------13|
A||----------------------------------------------------------------|
E||----------------------------------------------------------------|


3º ESTROFA
D#m
Siempre perdido en su soledad
C#
Mujeres y amigos le abandonaron
B
Con su guitarra buscó la verdad
A#
Solo ella sabe cuanto ha sangrado
D#m
Llena los vasos bebamos ya
C#
Olvidemos todo lo pasado
B
Ya no puedo verte llorar
A#
Bebamos juntos tienes mi mano

ESTRIBILLO
D#m
Canta tu canción
C#
Te quiero escuchar
B
Triste pero verdad
A#
Sabia soledad
D#m
Canta tu canción
C#
Te quiero escuchar
B
Triste pero verdad
A#
Sabia soledad

D#m
Dicen que está loco
C#
Porque no es como ellos
D#m
Dicen que está loco
B            C#
Porque ahora vive de sueños
D#m
Dicen que está loco
C#
Porque no es como ellos
D#m
Dicen que está loco
B            C#
Porque ahora vive de sueños

Bueno pues esto es todo, para
lo que queráis mi email es johnnyguitar@
Salud y rock n?roll

            
            
Suggest correction
Creating personal tab
Creating personal tab
You can edit any tab online and save it as your Personal.

You can edit, replace or remove any tab part or add personal notes – all changes will be seen only by you.

Personal tabs can be accessed anytime from any device, even offline.
Learn more »
Give kudos to tab author, rate the tab!
1 2 3 4 5
comments
print report bad tab
guest
Wanna post a correction for this tab? Suggest correction