Oops, an error
Loading. Please wait.

Miguel tab

version 3
version 3

Whole song

by La Fuga
10 views 1 this week
no commentswrite comment
1 2 3 4 5
3 more votes to show rating
add to favorites
×
Save as Personal and add changes to this tab that will be seen only by you. Learn more ›
×
You can save this tab as Personal to edit and correct it or add notes. All changes will be seen only by you. Learn more »
launch autoscroll
font size
0
reset
how to read this tab
guitar tuner
edit
Autoscroll
slow
fast
+/-
esc
set tempo
stop
Intro
   DO                          LAm
e|-------------0-------------------------0----------|
B|------1--------1-----------------1-------1--------|
G|--------0------------------0-------2----------2---|
D|----2------2-------------------2-----2------------|
A|--3--------------------------0--------------------|
E|--------------------------------------------------|

   DO                          LAm
e|-------------------------------------0------------|
B|------1--------------------------1----------------|
G|--------0--------------------------2--------------|
D|----2------2-------------------2----2-------------|
A|--3--------------------------0--------------------|
E|--------------------------------------------------|


   DO                               SOL
e|-------------0------------------------3--------------------------|
B|------1--------1-------------------------0-----------------------|
G|--------0-----------------------------------0--------------------|
D|----2------2------------------------0----------------------------|
A|--3-------------------------------2------------------------------|
E|-----------------------------------------------------------------|
            Miguel duerme en la calle       Juan 23,

   LAm                              SOL
e|-----------------------------------------------------------------|
B|------1---------1---------------------0--------------------------|
G|------------------2----------------------------------------------|
D|----2-------------------------------0----------------------------|
A|--0---------0---------------------2------------------------------|
E|-----------------------------------------------------------------|
            por la tarde lo verás            tocando en la principal.

   DO                               SOL
e|-------------0------------------------3--------------------------|
B|------1--------1-------------------------0-----------------------|
G|--------------------------------------------0--------------------|
D|----2------2------------------------0----------------------------|
A|--3-------------------------------2------------------------------|
E|-----------------------------------------------------------------|
            Su guitarra siempre fiel         duerme junto a él

   LAm                              LAm
e|------------0---------------------------0------------------------|
B|------1-------1------------------------1-------------------------|
G|--------------------------------------2--------------------------|
D|----2--------------------------------2---------------------------|
A|--0---------------------------------0----------------------------|
E|-------------------------------0---------------------------------|
            lo que saca pa' comer               y pa' beber.


   DO                          LAm
e|-------------0-------------------------0----------|
B|------1--------1-----------------1-------1--------|
G|--------0------------------0-------2----------2---|
D|----2------2-------------------2-----2------------|
A|--3--------------------------0--------------------|
E|--------------------------------------------------|


   DO                          LAm
e|-------------0-----------------------0------------|
B|------1--------1--------------------1-------------|
G|--------0------------------0-------2--------------|
D|----2------2----------------------2---------------|
A|--3------------------------------0----------------|
E|--------------------------------------------------|


   FA                           SOL
e|------1-----------------1-----------------------------------|
B|---------1------1-----1-------------------------------------|
G|--2---------2-------2---------0-----------------------------|
D|--3---------------------------0------0----------------------|
A|--3---------------------------2-----2-----------------------|
E|--1---------------------------3-----------------------------|
          Canta un corazón           que está cansado de vivir


   FA            DO               LAm
e|------1-------------0----------------------0-|
B|------------------------------------1--------|
G|--------------------------------------2------|
D|----3------------2----------------2----------|
A|--3------------3----------------0------------|
E|---------------------------------------------|
          Siempre fuera de control


   FA                           SOL
e|-------------------------------------------------------------|
B|-------------1---------------------------0-------------------|
G|-----------2---------------------------0---------------------|
D|---------3---------------------------0-----------------------|
A|-------3---------------------------2-------------------------|
E|---1---------------------------3-----------------------------|
         Busca la ilusión           que le vuelva a hacer reir


   FA            DO               LAm
e|------1-------------0-------------------------------------------------|
B|------------------------------------1----3p1--0----------1----3p1--0--|
G|--------------------------------------2---------2----------2----------|
D|----3------------2----------------2--------------------2--------------|
A|--3------------3----------------0--------------------0----------------|
E|----------------------------------------------------------------------|
          Solo tiene una canción


DO                   SOL
  Si hace frio abrigate
                    LAm
con cartones y la piel
                SOL
arrugada sabe que
DO                   SOL
  es el precio de nacer
            LAm
lejos del dinero,
                 SOL
tan lejos del poder


FA  SOL  DO  LAm


DO                SOL
  Ayer Miguel se fue
                     LAm
a su entierro no fue ningun rey
                 SOL
nadie lloró por él
DO                    SOL
  su guitarra se calló pero
                     LAm
su voz aún la puedo oir
               DO
por la calle mayor


FA              SOL
  Canta un corazón
                        DO*
que está cansado de vivir
          LAm*         MIm
Siempre fuera de control
FA              SOL
  Busca la ilusión
                        DO*
que le vuelva a hacer reir
          LAm*       MIm
solo tiene una canción

FA              SOL
  Canta un corazón
                        DO*
que está cansado de vivir
          LAm*         MIm
Siempre fuera de control
FA              SOL
  Busca la ilusión
                        DO*
que le vuelva a hacer reir
          LAm*       MIm
solo tiene una canción


---------------------------------------------------------------------
En Do* y Lam* en mitad del acorde se puede pegar un tirón con el indice en el tercer traste
de la segunda cuerda, asi quedará mas parecida a la canción
---------------------------------------------------------------------

Esta canción va dedicada a toda la gente que me conoce, y en especial a la gente de arquitectura de Valencia.
Manu_Spoon@
Suggest correction
Creating personal tab
Creating personal tab
You can edit any tab online and save it as your Personal.

You can edit, replace or remove any tab part or add personal notes – all changes will be seen only by you.

Personal tabs can be accessed anytime from any device, even offline.
Learn more »
Give kudos to tab author, rate the tab!
1 2 3 4 5
comments
print report bad tab
guest
Wanna post a correction for this tab? Suggest correction