Oops, an error
Loading. Please wait.

Negociando Gasolina tab

version 1
version 1

Whole song

by La Fuga
88 views 1 this week
no commentswrite comment
1 2 3 4 5
3 more votes to show rating
add to favorites
×
Save as Personal and add changes to this tab that will be seen only by you. Learn more ›
×
You can save this tab as Personal to edit and correct it or add notes. All changes will be seen only by you. Learn more »
launch autoscroll
font size
0
reset
how to read this tab
guitar tuner
edit
Autoscroll
slow
fast
+/-
esc
set tempo
stop
Intro:  D-D-Bm-A...


e||--------------------------------------
B||--------------------------------------
G||------------11-9----------------------
D||--9-12-9-12------12-9-9/12------------
A||--------------------------------------
E||--------------------------------------

e||-----------------------------------------------------------------
B||--------------10------------------------------------------10-----
G||---------0/11----11~-12p11----12p11---12p11---12p11-----11--11~--
D||---------------------------12-------12------12------12-----------
A||-----------------------------------------------------------------
E||-----------------------------------------------------------------


D                                 A
Triste,Como el perro en la autopista;
                          Bm                      Fm
Como una tortuga con prisa,como una monja en un burdel.
D                            A
Solo, Como cuando tu te fuiste,Como cuando no te rozan,
Bm                Fm
Unos labios de mujer,
G                   A
Hoy me he vuelto a ver...

D                               A
Absurdo, Como un domingo por la tarde;
                       Bm                         Fm
Como las balas por el aire; Como el puto despertador.

D                              A
Inútil,Como los besos que no diste;
                      Bm                       Fm
Como un cuerpo que se viste, Cuando me desnudo yo.

e||--------------------------------------------------------------------
B||-777888101010101010--777888101010101010---------15------------------
G||-------------------------------------------14/16---16--16--16-16/18-
D||--------------------------------------------------------------------
A||--------------------------------------------------------------------
E||--------------------------------------------------------------------

Estribillo:

 G                        A
Y ahora que voy mas solo que la luna
               Fm                  G
Negociando gasolina para este amanecer.
   G                        A
Ya ves, voy buscando en la basura
                    Fm                    G
Unos labios que me digan: "esta noche quédate".

Solo:

e||-----------------------------------------------------------------------
B||--------------7h8p7-------------7h8p7----------------------------------
G||---7-6-7~-7/9-------9-7/9---7/9-------9-7-7~---------------------------
D||---------------------------------------------9-7~----------7~----------
A||--------------------------------------------------9h10p9-7-------------
E||-----------------------------------------------------------------------

e||-------------------------------------------------------------12-10-9---
B||--------------7h8p7----------10b12b10-8-7---7~---10b12b10~-------------
G||---7-6-7~-7/9-------9-7/9-----------------9----------------------------
D||-----------------------------------------------------------------------
A||-----------------------------------------------------------------------
E||-----------------------------------------------------------------------

e||-9p7-7-10p7-7-9p7-7-10p7-7-9p7-7-10p7-7-9p7-7-10p7-7-------------------
B||-----------------------------------------------------------------------
G||-----------------------------------------------------------------------
D||-----------------------------------------------------------------------
A||-----------------------------------------------------------------------
E||-----------------------------------------------------------------------

e||-10p9-9-12p9-9-10p9-9-12p9-9-10p9-9-12p9-9-10p9-9-12p9-9/7~~~~~~-------
B||-----------------------------------------------------------------------
G||-----------------------------------------------------------------------
D||-----------------------------------------------------------------------
A||-----------------------------------------------------------------------
E||-----------------------------------------------------------------------

Bm                                                      G
Como un borracho en el desierto; Como una princesa en el metro;
A
Como un reo sin voz.

Bm
Como una navidad sin techo; Como un delfín en el mar muerto;
Fm                          A
Como la lagrima que moja tu colchón.

D                             A
Vacío, Como el corazón del rico;
                        Bm                           Fm
Como el bolsillo del mendigo; Como los besos de alquiler.

D                             A
Confuso, Como una noche sin abrigo;
                             Bm                           Fm
Como las frases que ya no te escribo, Pa que vuelvas otra vez.


Estribillo (x2)

Nota Final : A

            
            
Suggest correction
Creating personal tab
Creating personal tab
You can edit any tab online and save it as your Personal.

You can edit, replace or remove any tab part or add personal notes – all changes will be seen only by you.

Personal tabs can be accessed anytime from any device, even offline.
Learn more »
Give kudos to tab author, rate the tab!
1 2 3 4 5
comments
print report bad tab
guest
Wanna post a correction for this tab? Suggest correction