Oops, an error
Loading. Please wait.

Pa Volar tab

version 1
version 1

Whole song

by La Fuga
26 views 1 this week
no commentswrite comment
1 2 3 4 5
3 more votes to show rating
add to favorites
×
Save as Personal and add changes to this tab that will be seen only by you. Learn more ›
×
You can save this tab as Personal to edit and correct it or add notes. All changes will be seen only by you. Learn more »
launch autoscroll
font size
0
reset
how to read this tab
guitar tuner
edit
Autoscroll
slow
fast
+/-
esc
set tempo
stop

Intro: LA5     DO5     FA5(traste 1)   MI5(traste 0)  x2

Estrofa:

LA5
Perdí noción de tiempo y de lugar,
LA5
gané emoción, no me echaron del bar.
DO5     SOL5
Amaneció, nos ha pillao el sol
                   x2                      x2
E||----------0--------------|----------3---------------|
B||-------1-----1-----1-----|-------3-----3-----3------|
G||----------------0--------|----------------0---------|
D||-------------------------|--------------------------|
A||--3----------------------|--------------------------|
E||-------------------------|--3-----------------------|


Dm                 E
con ganas de charlar.
                  x2     (rasgueos rápidos)
E||----------5--------------|--5555--------7777--------|
B||-------6-----6-----6-----|--6666--------9999--------|
G||----------------7--------|--7777--------7777--------|
D||-------------------------|--7777--------9999--------|
A||--5----------------------|--------------------------|
E||-------------------------|--------------------------|


Preestribillo:

   LAm         DO            FA           MI           LAm        DO             FA            MI 
E||--5--0-7--0-8--0-7--0-5--|--5--0-7--0-8--0-7--0-5--|--5--0-7--0-8--0-7--0-5--|--10--0-7--0-8--0-7--0-5-|
B||-------------------------|-------------------------|-------------------------|-------------------------|
G||-------------------------|-------------------------|-------------------------|-------------------------|
D||-------------------------|-------------------------|-------------------------|-------------------------|
A||-------------------------|-------------------------|-------------------------|-------------------------|
E||-------------------------|-------------------------|-------------------------|-------------------------|

Estribillo:

LA5              RE5
Y llegar a casa cuando sale el sol,
LA5      FA5(traste 8)   DO5
me dice que dónde coño voy,
RE5                          MI5(traste 7)
le digo que no encuentro el portal.
LA5           RE5
Y llegar a casa cuando sale el sol,
LA5    FA8(traste 8)     DO5
me dice que dónde coño voy,
RE5                  MI5(traste 7)
le pido que me deje en paz.


Punteo:

   LA5            RE5            LA5            FA5 (traste 8)

E||----------------------------|-----------------------------|
B||----------------------------|---------------8-------------|
G||--5----------5---5-7-7r-5---|--5----------7b--7r5-7-5---5-|
D||----7-7--------7----------7-|----7-7------------------7---|
A||----------------------------|-----------------------------|
E||----------------------------|-----------------------------|


DO5           RE5       MI5(traste 7)

----------------8-------|--12-13-12-10-12-10----10-12-13-12-10-12~---|
-----8-------8b---8b----|--------------------13----------------------|
--7b---7b---------------|--------------------------------------------|
------------------------|--------------------------------------------|
------------------------|--------------------------------------------|
------------------------|--------------------------------------------|


LA5                      RE5

--15b-15b---15-12-15-12----12-15-12-15b--12-|
------------------------15------------------|
--------------------------------------------|
--------------------------------------------|
--------------------------------------------|
--------------------------------------------|

LA5                  FA5(traste 8)

--15-12-------------------------------------------|
--------16-15-12-11-12-15-12-11-------------------|
--------------------------------14-12-14r---------|
--------------------------------------------------|
--------------------------------------------------|
--------------------------------------------14/---|


DO5                        RE5

----------------------------------------------------------|
----------------------------------------------------------|
----------------------------------------------------------|
-------------------------------------7----7-9-7-9-10-9-10-|
----------------7----7-8-7-8-10-8-10---10-----------------|
--8-7-8-10-8-10---10--------------------------------------|


Mi5(traste 7)

--17----------------------------------------------------------------------|
-----17-17-17-17----17----------------------------------------------------|
-----------------16----16----16-------------------------------------------|
--------------------------17----17-16-17-16-14-16-14----14----------------|
-----------------------------------------------------17----17-15-17-15-13-|
--------------------------------------------------------------------------|

LA5

--------------------||
--------------------||
-/14----------------||
--------------------||
--------------------||
--------------------||


(En esta parte hacer un arpegio similar al de antes de la estrofa pero con estos acordes)
       FA                         DO 
Despertar, no hay nada en su lugar,
               REm                  SOL 
busco en un cajón, todo funciona mal.
       FA                     DO 
Anocheció, el teléfono sonó,
                     REm
me arrastro a descolgar
                      SOL 
y escucho la invitación
                      DO 
de unos colegas pa volar.


*Dudas y/o sugerencias a gonkc630@ Un saludo
Suggest correction
Creating personal tab
Creating personal tab
You can edit any tab online and save it as your Personal.

You can edit, replace or remove any tab part or add personal notes – all changes will be seen only by you.

Personal tabs can be accessed anytime from any device, even offline.
Learn more »
Give kudos to tab author, rate the tab!
1 2 3 4 5
comments
print report bad tab
guest
Wanna post a correction for this tab? Suggest correction