Oops, an error
Loading. Please wait.

Por Verte Sonreir tab

version 1
version 1

Whole song

Interactive

by La Fuga
289 views 6 this week
no commentswrite comment
1 2 3 4 5
3 more votes to show rating
add to favorites
×
Save as Personal and add changes to this tab that will be seen only by you. Learn more ›
×
You can save this tab as Personal to edit and correct it or add notes. All changes will be seen only by you. Learn more »
launch autoscroll
font size
0
reset
how to read this tab
guitar tuner
edit
Autoscroll
slow
fast
+/-
esc
set tempo
stop
Pista 1 (acustica)

E||-------------------------|-----------------------|----------0h-2----------|
B||-----------3-------------|-----------3-----------|----------------3-------|
G||--------0-------0-----0--|--------0-------0------|-------2-----------2----|
D||-----2-------------2-----|-----0-----------------|--0---------------------|
A||--3----------------------|--2--------------------|------------------------|
E||-------------------------|-----------------------|------------------------|


--3------2-------------|-------------------------|-----------------------|
--------------3-----3--|-----------3-------------|-----------3-----------|
-----------------2-----|--------0-------0-----0--|--------0-------0------|
-----------------------|-----2-------------2-----|-----0-----------------|
-----------------------|--3----------------------|--2--------------------|
-----------------------|-------------------------|-----------------------|


------------------------|----------------------|-------------------------|
----------0h-1----------|--3------1------------|-----------3-------------|
----------------2-------|--------------2-------|--------0-------0-----0--|
-------2-----------2----|-----------------2----|-----2-------------2-----|
--0---------------------|----------------------|--3----------------------|
------------------------|----------------------|-------------------------|


-----------------------|----------0h-2----------|--3------2-------------|
-----------3-----------|----------------3-------|--------------3-----3--|
--------0-------0------|-------2-----------2----|-----------------2-----|
-----0-----------------|--0---------------------|-----------------------|
--2--------------------|------------------------|-----------------------|
-----------------------|------------------------|-----------------------|


-------------------------|-----------------------|------------------------|
-----------3-------------|-----------3-----------|----------0h-1----------|
--------0-------0-----0--|--------0-------0------|----------------2-------|
-----2-------------2-----|-----0-----------------|-------2-----------2----|
--3----------------------|--2--------------------|--0---------------------|
-------------------------|-----------------------|------------------------|


--------------------|-------------------------|-----------------------|
--3------1----------|-----------3-------------|-----------3-----------|
--4------2----------|--------0-------0-----0--|--------0-------0------|
--------------------|-----2-------------2-----|-----0-----------------|
--------------------|--3----------------------|--2--------------------|
--------------------|-------------------------|-----------------------|


----------0h-2----------|--3------2-------------|-------------------------|
----------------3-------|--------------3-----3--|-----------3-------------|
-------2-----------2----|-----------------2-----|--------0-------0-----0--|
--0---------------------|-----------------------|-----2-------------2-----|
------------------------|-----------------------|--3----------------------|
------------------------|-----------------------|-------------------------|


-----------------------|------------------------|----------------------|
-----------3-----------|----------0h-1----------|--3------1------------|
--------0-------0------|----------------2-------|--------------2-------|
-----0-----------------|-------2-----------2----|-----------------2----|
--2--------------------|--0---------------------|----------------------|
-----------------------|------------------------|----------------------|


-------------------------|-----------------------|----------0h-2----------|
-----------3-------------|-----------3-----------|----------------3-------|
--------0-------0-----0--|--------0-------0------|-------2-----------2----|
-----2-------------2-----|-----0-----------------|--0---------------------|
--3----------------------|--2--------------------|------------------------|
-------------------------|-----------------------|------------------------|


--3------2-------------|-------------------------|-----------------------|
--------------3-----3--|-----------3-------------|-----------3-----------|
-----------------2-----|--------0-------0-----0--|--------0-------0------|
-----------------------|-----2-------------2-----|-----0-----------------|
-----------------------|--3----------------------|--2--------------------|
-----------------------|-------------------------|-----------------------|


------------------------|--0h2-----------------|-------------------------|
----------0h-1----------|--3-------------------|-----------3-------------|
----------------2-------|--2-------------------|--------0-------0-----0--|
-------2-----------2----|--0-------------------|-----2-------------2-----|
--0---------------------|----------------0--2--|--3----------------------|
------------------------|----------------------|-------------------------|


-----------------------|----------0h-2----------|--3------2-------------|
-----------3-----------|----------------3-------|--------------3-----3--|
--------0-------0------|-------2-----------2----|-----------------2-----|
-----0-----------------|--0---------------------|-----------------------|
--2--------------------|------------------------|-----------------------|
-----------------------|------------------------|-----------------------|


-------------------------|-----------------------|------------------------|
-----------3-------------|-----------3-----------|----------0h-1----------|
--------0-------0-----0--|--------0-------0------|----------------2-------|
-----2-------------2-----|-----0-----------------|-------2-----------2----|
--3----------------------|--2--------------------|--0---------------------|
-------------------------|-----------------------|------------------------|


--------------------|----------------------|----------------------|
--3------1----------|-----------3----------|-----------3----------|
--------------------|--------0-------------|--------0-------------|
--------------------|-----2----------------|-----0----------------|
--------------------|--3-------------------|--2-------------------|
--------------------|----------------------|----------------------|


----------0h-2---------|--------------------|----------------------|
----------------3------|---------3----------|-----------3----------|
-------2---------------|--------------------|--------0-------------|
--0--------------------|--0-----------------|-----2----------------|
-----------------------|--------------------|--3-------------------|
-----------------------|--------------------|----------------------|


----------------------|-----------------------|--------------------|
-----------3----------|----------0h-1---------|--3------1----------|
--------0-------------|----------------2------|--------------------|
-----0----------------|-------2---------------|--------------------|
--2-------------------|--0--------------------|--------------------|
----------------------|-----------------------|--------------------|


----------------------|----------------------|----------0h-2---------|
-----------3----------|-----------3----------|----------------3------|
--------0-------------|--------0-------------|-------2---------------|
-----2----------------|-----0----------------|--0--------------------|
--3-------------------|--2-------------------|-----------------------|
----------------------|----------------------|-----------------------|


---------2----------|----------------------|----------------------|--------|
--------------------|-----------3----------|-----------3----------|--------|
--------------------|--------0-------------|--------0-------------|--------|
--0-----------------|-----2----------------|-----0----------------|--------|
--------------------|--3-------------------|--2-------------------|--------|
--------------------|----------------------|----------------------|--------|

Guitarra 2 (Electrica)
-------------------|--------------------------|------------------|
-------------------|--------------------------|------------------|
----------------2--|--2--2--2--2--2--2--2--2--|------------------|
----------------2--|--2--2--2--2--2--2--2--2--|------------------|
----------------0--|--0--0--0--0--0--0--0--0--|------------------|
-------------------|--------------------------|------------------|


------------------------|------------------------|-------------------------|
------------------------|------------------------|-------------------------|
--5----5--x--x--5--5----|--9----9--x--x--9--9----|--7----9--x--7--x--9--7--|
--5----5--x--x--5--5----|--9----9--x--x--9--9----|--7----9--x--7--x--9--7--|
--3----3--x--x--3--3----|--7----7--x--x--7--7----|--5----7--x--5--x--7--5--|
------------------------|------------------------|-------------------------|


-------------------------|------------------------|------------------------|
-------------------------|------------------------|------------------------|
----7--9--x--7--9--7--9--|--5----5--x--x--5--5----|--9----9--x--x--9--9----|
----7--9--x--7--9--7--9--|--5----5--x--x--5--5----|--9----9--x--x--9--9----|
----5--7--x--5--7--5--7--|--3----3--x--x--3--3----|--7----7--x--x--7--7----|
-------------------------|------------------------|------------------------|


-------------------------|-------------------------|------------------------|
-------------------------|-------------------------|------------------------|
--7----9--x--7--x--9--7--|----7--9--x--7--9--7--9--|--5----5--x--x--5--5----|
--7----9--x--7--x--9--7--|----7--9--x--7--9--7--9--|--5----5--x--x--5--5----|
--5----7--x--5--x--7--5--|----5--7--x--5--7--5--7--|--3----3--x--x--3--3----|
-------------------------|-------------------------|------------------------|


------------------------|-------------------------|-------------------------|
------------------------|-------------------------|-------------------------|
--9----9--x--x--9--9----|--7----9--x--7--x--9--7--|----7--9--x--7--9--7--9--|
--9----9--x--x--9--9----|--7----9--x--7--x--9--7--|----7--9--x--7--9--7--9--|
--7----7--x--x--7--7----|--5----7--x--5--x--7--5--|----5--7--x--5--7--5--7--|
------------------------|-------------------------|-------------------------|


------------------------|------------------------|-------------------------|
------------------------|------------------------|-------------------------|
--5----5--x--x--5--5----|--9----9--x--x--9--9----|--7----9--x--7--x--9--7--|
--5----5--x--x--5--5----|--9----9--x--x--9--9----|--7----9--x--7--x--9--7--|
--3----3--x--x--3--3----|--7----7--x--x--7--7----|--5----7--x--5--x--7--5--|
------------------------|------------------------|-------------------------|


-------------------------|-------------------------|------|------|------|------|
-------------------------|-------------------------|------|------|------|------|
----7--9--x--7--9--7--9--|--7----9--x--7--x--9--7--|------|------|------|------|
----7--9--x--7--9--7--9--|--7----9--x--7--x--9--7--|------|------|------|------|
----5--7--x--5--7--5--7--|--5----7--x--5--x--7--5--|------|------|------|------|
-------------------------|-------------------------|------|------|------|------|

  Guitarra 1 (acústica)
--------|--------|--------|----------------------|----------------------|
--------|--------|--------|-----------3----------|-----------3----------|
--------|--------|--------|--------0-------------|--------0-------------|
--------|--------|--------|-----2----------------|-----0----------------|
--------|--------|--------|--3-------------------|--2-------------------|
--------|--------|--------|----------------------|----------------------|


----------0h-2----------|--3------2------------|----------------------|
----------------3-------|--------------3-------|-----------3----------|
-------2-----------2----|-----------------2----|--------0-------------|
--0---------------------|----------------------|-----2----------------|
------------------------|----------------------|--3-------------------|
------------------------|----------------------|----------------------|


----------------------|-----------------------|--------------------|
-----------3----------|----------0h-1---------|--3------1----------|
--------0-------------|----------------2------|--4------2----------|
-----0----------------|-------2---------------|--------------------|
--2-------------------|--0--------------------|--------------------|
----------------------|-----------------------|--------------------|


---------------------|---------------------|-----------2----------|
----------3----------|----------3----------|--------3--3----------|
----------0----------|----------0----------|-----2----------------|
-----2---------------|-----0---------------|--0-------------------|
--3------------------|--2------------------|----------------------|
---------------------|---------------------|----------------------|


-----2--x--2----------|---------------------|---------------------|
-----3--x--3----------|----------3----------|----------3----------|
----------------------|----------0----------|----------0----------|
--0-------------------|-----2---------------|-----0---------------|
----------------------|--3------------------|--2------------------|
----------------------|---------------------|---------------------|


---------------------|----------------------||
----------1----------|-----1--x--1----------||
----------2----------|-----2--x--2----------||
-------2-------------|----------------------||
--0------------------|--0-------------------||
---------------------|----------------------||
Suggest correction
Creating personal tab
Creating personal tab
You can edit any tab online and save it as your Personal.

You can edit, replace or remove any tab part or add personal notes – all changes will be seen only by you.

Personal tabs can be accessed anytime from any device, even offline.
Learn more »
Give kudos to tab author, rate the tab!
1 2 3 4 5
comments
print report bad tab
guest
Wanna post a correction for this tab? Suggest correction