Oops, an error
Loading. Please wait.

Sola tab

version 2
version 2

Whole song

by La Fuga
10 views 1 this week
no commentswrite comment
1 2 3 4 5
3 more votes to show rating
add to favorites
×
Save as Personal and add changes to this tab that will be seen only by you. Learn more ›
×
You can save this tab as Personal to edit and correct it or add notes. All changes will be seen only by you. Learn more »
launch autoscroll
font size
0
reset
how to read this tab
guitar tuner
edit
Autoscroll
slow
fast
+/-
esc
set tempo
stop
 intro                   (solista)

e|-----------------------------------------------------
B|-----------------------------------------------------
G|-----------------------------------------------------
D|-----------2-----------------------2---4s6-4-2---2-2-
A|-----2-4p0--4-4s7-4-2---4-4-2--4p0---4---------4-----
E|-2-4------------------4-------4----------------------

e --------------------------------------------- |
B --------------------------------------------- |
G --------------------------------------------- |Intro:ritmica
D --------2-----------------------4-4-4-4-4-4-4 |C#5 B5 A5
A 4-2-4p0---4-4s7-4-2---4-4-2-----4-4-4-4-4-4-4 |C#5 B5 A5
E --------------------4-------4---2-2-2-2-2-2-2 |C#5 B5 A5 F#5
                                  * * * * * * *
C#5            B5     A5
Fría, como un hielo entre las manos,
C#5      B5    A5    C#5      B5    A5
pasas delante de mi casa sin dedicar ni una mirada
F#5                  A5
a las paredes que esconden tus recuerdos.

C#5            B5     A5
Recuerdos que algún día,
C#5      B5    A5
quizá en la lejanía,
C#5      B5    A5
den de beber a tu alma
F#5                  A5
sedienta de tantas alegrías.

(SOLISTA PARA LA ESTROFA DE ARRIBA)
e--------------------------------------------------
B--------------------------------------------------
G-6~~~-4--2----------------------------------------
D------4--2--( X 3)-4-4-4-4-4-4-4-4--7-7-7-X-7-7-7-
A------2--0---------4-4-4-4-4-4-4-4--7-7-7-X-7-7-7-
E-------------------2-2-2-2-2-2-2-2--5-5-5-X-5-5-5-
                    * * * * * * * *


C#5            B5     A5
Por eso dime, dime dónde duermes,
C#5            B5     A5
dime quién vigila tus noches oscuras
F#5                    A5     B5    F#5   A5
que tú sola llenas de fantasía.


e-------------------------------------------------
B-------------------------------------------------
G-6-4-6~~--4-2-( X 3)-6-9-6--4-2------------------
D-6-4-6~~--4-2--------6-9-6--4-2--4-4-4-4-4-4-4-4-
A---------------------------------4-4-4-4-4-4-4-4-
E---------------------------------2-2-2-2-2-2-2-2-
                                  * * * * * * * *


punteo 1   (Solista)
e|----------------------------------------------------------------------|
B|--5/7--5--4--2--4-5-5--4------5/7--5--4--2--4-5-----------------------|
G|----------------------------------------------------------------------|
D|-------------------------6~---------------------6~---6-4~---9---9---7-|
A|------------------------------------------------------------9---9---7-|
E|------------------------------------------------------------7---7---9-|

(ritmica)

A5 B5 F#5 A5
A5 B5 F#5 A5 B5


ESTRIBILLO (RITMICA)

E5                   B5
Sola, caminas por la vida
C#5
fumándote los días,
A5                 B5
bailando a la luna pa' que yo muera de envidia.
E5                 B5
Me vendes tu sonrisa,
C#5
te busco en todas las miradas
A5                     B5
que apuntan al cielo al caer la madrugada.

ESTRIBILLO (SOLISTA)

e-----------------------------------------------------------------
B-12-10-9-10-9-10--7-5-4-5-4---12-10-9-10-9-10--12-10-9-10-9-10---
G----------------------------4------------------------------------
D-----------------------------------------------------------------
A---------------------------------------( X 2 )-------------------
E-----------------------------------------------------------------

------------------------------------------------------------------

             INTERMEDIO                  (solista)

e|-----------------------------------------------------
B|-----------------------------------------------------
G|-----------------------------------------------------
D|-----------2-----------------------2---4s6-4-2---2-2-
A|-----2-4p0--4-4s7-4-2---4-4-2--4p0---4---------4-----
E|-2-4------------------4-------4----------------------

e --------------------------------------------- |
B --------------------------------------------- |
G --------------------------------------------- |INTERMEDIO:ritmica
D --------2-----------------------4-4-4-4-4-4-4 |C#5 B5 A5
A 4-2-4p0---4-4s7-4-2---4-4-2-----4-4-4-4-4-4-4 |C#5 B5 A5
E --------------------4-------4---2-2-2-2-2-2-2 |C#5 B5 A5 F#5
                                  * * * * * * *

               C#5       B5           A5  C#5
Ya no es tan fácil colgarme de tus sueños,
  B5      A5      C#5              B5   A5
borrar todas las nubes que apagan tus días,
F#5                              A5    B5
pintar en tu cielo un sol por las mañanas..


e------------------------------------------------------
B------------------------------------------------------
G------------------------------------------------------
D-4-4-4-4-4-4-4-4-7-7-7-7-7-7-7-7-9---9---9---9---9--9-
A-4-4-4-4-4-4-4-4-7-7-7-7-7-7-7-7-9---9---9---9---9--9-
E-2-2-2-2-2-2-2-2-5-5-5-5-5-5-5-5-7---7---7---7---7--7-
  * * * * * * * * * * * * * * * *


ESTRIBILLO (RITMICA)

E5                   B5
Sola, caminas por la vida
C#5
fumándote los días,
A5                 B5
bailando a la luna pa' que yo muera de envidia.
E5                 B5
Me vendes tu sonrisa,
C#5
te busco en todas las miradas
A5                     B5
que apuntan al cielo al caer la madrugada.
E5                   B5
Caminas por la vida
C#5
fumándote los días,
A5                 B5
bailando a la luna pa' que yo muera de envidia.

ESTRIBILLO (SOLISTA)

e-----------------------------------------------------------------
B-12-10-9-10-9-10--7-5-4-5-4---12-10-9-10-9-10--12-10-9-10-9-10---
G----------------------------4------------------------------------
D-----------------------------------------------------------------
A---------------------------------------( X 3 )-------------------
E-----------------------------------------------------------------


        SOLO (SOLISTA)
e|---------------------------------------------------|
B|-9~----12--------13]15-15-15-15-15]16-12~----------|
G|----------11~--------------------------------------|Solo: E5 B5 C#5 A5 B5
D|---------------------------------------------------|
A|---------------------------------------------------|
E|---------------------------------------------------|

e|---------------------------------------------------|
B|-7/9-7------7/9-7---------17^19-19-19-19-19-18-17~-|
G|-------9-6~-------9-6~-----------------------------|
D|---------------------------------------------------|
A|---------------------------------------------------|
E|---------------------------------------------------|


(RITMICA)

E5
Sola...
B5
Sola...
C#5
Sola...
A5
Sola... (X2)

ESTRIBILLO (SOLISTA)
e-----------------------------------------------------------------
B-12-10-9-10-9-10--7-5-4-5-4---12-10-9-10-9-10--12-10-9-10-9-10---
G----------------------------4------------------------------------
D-----------------------------------------------------------------
A---------------------------------------( X 2 )-------------------
E-----------------------------------------------------------------

FIN   E5

            
            
Suggest correction
Creating personal tab
Creating personal tab
You can edit any tab online and save it as your Personal.

You can edit, replace or remove any tab part or add personal notes – all changes will be seen only by you.

Personal tabs can be accessed anytime from any device, even offline.
Learn more »
Give kudos to tab author, rate the tab!
1 2 3 4 5
comments
print report bad tab
guest
Wanna post a correction for this tab? Suggest correction