Oops, an error
Loading. Please wait.

Sola tab

version 3
version 3

Whole song

by La Fuga
20 views 1 this week
no commentswrite comment
1 2 3 4 5
3 more votes to show rating
add to favorites
×
Save as Personal and add changes to this tab that will be seen only by you. Learn more ›
×
You can save this tab as Personal to edit and correct it or add notes. All changes will be seen only by you. Learn more »
launch autoscroll
font size
0
reset
how to read this tab
guitar tuner
edit
Autoscroll
slow
fast
+/-
esc
set tempo
stop
| pegar con la pua las cuerdas para abajo y para arriba
> estirar la cuerda hasta hacer sonar dos notas mas arriba
* pal mute
dejo estos apuntes puesto que soy bastante novato
 y no se como se llama cada cosa.
!Si alguien se anima a decirmelo¡

                intro
e|-------|--------------------------------------|
B|-------|--------------------------------------|
G|-------|-6-6---4-4-4-2------------------------|
D|-------|-6-6---4-4-4-2-( X 3 )-4-4-4-4-4-4-7--|
A|-----2-|-4-4---2-2-2-0---------4-4-4-4-4-4-7--|
E|-2-4---|-----------------------2-2-2-2-2-2-5--|
                                 * * * * * *
                riff 1
e|-------------------------------------------|
B|-------------------------------------------|
G|-6-6-6-6-6-6-4--2--------------------------|
D|-6-6-6-6-6-6-4--2-( X 3 )---4-4-4-4-4-4-7--|
A|-4-4-4-4-4-4-2--0-----------4-4-4-4-4-4-7--|
E|----------------------------2-2-2-2-2-2-5--|
   * * * * * *                * * * * * *
                riff 2
e|------------------------------------------------|
B|------------------------------------------------|
G|-6-6-6-6-6-6-4--2-------------------------------|
D|-6-6-6-6-6-6-4--2-( X 3 )-4-4-4-4-4-4-7-7-7-7-7-|
A|-4-4-4-4-4-4-2--0---------4-4-4-4-4-4-7-7-7-7-7-|
E|--------------------------2-2-2-2-2-2-5-5-5-5-5-|
   * * * * * *              * * * * * * *   *   *
                riff 3
e|------------------------------------------|
B|------------------------------------------|
G|-6-6-6-6-6-6-4--2-------------------------|
D|-6-6-6-6-6-6-4--2-( X 4 )---4-4-4-4-4-4---|
A|-4-4-4-4-4-4-2--0-----------4-4-4-4-4-4---|
E|----------------------------2-2-2-2-2-2---|
   * * * * * *                * * * * * *
                     punteo 1
e|-----------------------------------------------------------|
B|--5/7--5--4--2--4-5-5--4------5/7--5--4--2--4-5------------|
G|-----------------------------------------------------------|
D|-------------------------6~---------------------6~---6-4~--|
A|-----------------------------------------------------------|
E|-----------------------------------------------------------|

                   estribillo 1
e|-----------------------------------------------------------|
B|-----------------------------------------------------------|
G|------------4----------6----------2------------------------|
D|-2-( X 11|)-4-( X 11|)-6-( X 11|)-2-( X 11|)--( todo X 2 )-|
A|-2----------2----------4----------0------------------------|
E|-0---------------------------------------------------------|

         antes del siguiente riff
e|--------------------------------------|
B|--------------------------------------|
G|-6-6---4-4-4-2------------------------|
D|-6-6---4-4-4-2--( x 3 )-4-4-4-4-4-4-7-|
A|-4-4---2-2-2-0----------4-4-4-4-4-4-7-|
E|------------------------2-2-2-2-2-2-5-|
                          * * * * * *
                       riff 4
e|--------------------------------------------------------------------|
B|----( empieza el bajo y luego sigue esto )--------------------------|
G|---------------------------------------------------4--4--4--4--4-4--|
D|-4-4-4-4-4-4-4-4-4-4-4-4--7-7-7-7-7-7-7-7-7-7-7-7--4--4--4--4--4-4--|
A|-4-4-4-4-4-4-4-4-4-4-4-4--7-7-7-7-7-7-7-7-7-7-7-7--2--2--2--2--2-2--|
E|-2-2-2-2-2-2-2-2-2-2-2-2--5-5-5-5-5-5-5-5-5-5-5-5-------------------|
   * * * * * * * * * * * *  * * * * * * * * * * * *

                 estribillo 2
e|----------------------------------------------------------|
B|---------------------------------------------( todo X 3 )-|
G|------------4----------6----------2-----------------------|
D|-2-( X 11|)-4-( X 11|)-6-( X 11|)-2-( X 11|)--------------|
A|-2----------2----------4----------0-----------------------|
E|-0--------------------------------------------------------|

                punteo final
e|---------------------------------------------------|
B|-9~----12--------13>15-15-15-15-15>16-12~----------|
G|----------11~--------------------------------------|
D|---------------------------------------------------|
A|---------------------------------------------------|
E|---------------------------------------------------|

e|---------------------------------------------------|
B|-7/9-7------7/9-7---------17^19-19-19-19-19-18-17~-|
G|-------9-6~-------9-6~-----------------------------|
D|---------------------------------------------------|
A|---------------------------------------------------|
E|---------------------------------------------------|


                estribillo final
e|-------------------------------------------------------------|
B|---------------------------------------------( todo X 2 )----|
G|------------4----------6----------2--------------------------|
D|-2-( X 11|)-4-( X 11|)-6-( X 11|)-2-( X 11|)--------------2--|
A|-2----------2----------4----------0-----------------------2--|
E|-0--------------------------------------------------------0--|


Esta es mi primera transcripcion,me ayudaste mucho Alejandro,
el punteo lo he sacado yo,
si os suena mal y lo quereis correjir adelante por favor.
Para consultas o dudas  mandarme un correo

       Un saludo a todos
Suggest correction
Creating personal tab
Creating personal tab
You can edit any tab online and save it as your Personal.

You can edit, replace or remove any tab part or add personal notes – all changes will be seen only by you.

Personal tabs can be accessed anytime from any device, even offline.
Learn more »
Give kudos to tab author, rate the tab!
1 2 3 4 5
comments
print report bad tab
guest
Wanna post a correction for this tab? Suggest correction