Oops, an error
Loading. Please wait.

Caminando Bass

83 views 1 this week
no commentswrite comment
1 2 3 4 5
3 more votes to show rating
add to favorites
×
Save as Personal and add changes to this tab that will be seen only by you. Learn more ›
×
You can save this tab as Personal to edit and correct it or add notes. All changes will be seen only by you. Learn more »
save as personal
new!
launch autoscroll
font size
0
reset
guitar tuner
Autoscroll
slow
fast
+/-
esc
set tempo
stop
Es muy sencilla , solo hay que escucharla
el bajista le pone dos que tres cosillas mas
pero asi es mas facil para los principiantes
se escucha muy bien.

              INTRO    
G|------------------------------------|
D|---------2-2-5-5-----------3-3-7-7--|
A|-3-3-3-3-----------5-5-5-5----------|
E|------------------------------------|

G|------------------------------------|
D|---------2-2-5-5-----------3-3-7-7--|
A|-3-3-3-3-----------5-5-5-5----------|
E|------------------------------------|

                                          Practicamente asi es toda la cancion,solo hay dos cambios
G|-------------------------------------------------------------------------------------------------| 
D|----5-5-5-5-5----5-5-5------7-7-7-7-7----7-7-7------5-5-5-5-5----5-5-5------7-7-7-7-7----7-7-7---| 
A|-3------------3--------3-5------------5--------5-3------------5--------5-3------------5--------5-| 
E|-------------------------------------------------------------------------------------------------|


Estoy aqui parado esperando subirme a este barco
estoy viendo hacia el mar y veo caracolitos volando
no quiero regresar aunque halla mucha gente esperando
yo quiero irme hacia el mar aunque me vaya yo caminando
G|-------------------------------------------------------------------------------------------------|
D|----5-5-5-5-5----5-5-5------7-7-7-7-7----7-7-7------5-5-5-5-5----5-5-5------7-7-7-7-7----7-7-7---| 
A|-3------------3--------3-5------------5--------5-3------------5--------5-3------------5--------5-| 
E|-------------------------------------------------------------------------------------------------|
 
       AQUI SIGUE UNE DE LOS DOS CAMBIOS QUE HAY EN LA CANCION (LOS DOS CAMBIOS SON IGUALES)
 

      oh    oh    oh   oh          caminando          oh   oh   oh   oh           caminando 
G|-------------------------------------------------------------------------------------------------|
D|----9-9-9-9-9----9-9-9------7-7-7-7-7----7-7-7------9-9-9-9-9----9-9-9------7-7-7-7-7----7-7-7---|
A|-7------------7--------7-5------------5--------5-7------------7--------7-5------------5--------5-|
E|-------------------------------------------------------------------------------------------------|

no hay no hay prisa de llegar , no hay no hay prisa de llegar,
G|-------------------------------------------------------------------------------------------------|
D|----5-5-5-5-5----5-5-5------7-7-7-7-7----7-7-7------5-5-5-5-5----5-5-5------7-7-7-7-7----7-7-7---| 
A|-3------------3--------3-5------------5--------5-3------------5--------5-3------------5--------5-| 
E|-------------------------------------------------------------------------------------------------|
  
para estar en la arena muy cerca del mar , para ver las gaviotas al atrdecer
G|-------------------------------------------------------------------------------------------------|
D|----5-5-5-5-5----5-5-5------7-7-7-7-7----7-7-7------5-5-5-5-5----5-5-5------7-7-7-7-7----7-7-7---|
A|-3------------3--------3-5------------5--------5-3------------5--------5-3------------5--------5-|
E|-------------------------------------------------------------------------------------------------|
   


Estoy aqui parado esperando subirme a este barco
estoy viendo hacia el mar y veo caracolitos volando
no quiero regresar aunque halla mucha gente esperando
yo quiero irme hacia el mar aunque me vaya yo caminando
G|-------------------------------------------------------------------------------------------------|
D|----5-5-5-5-5----5-5-5------7-7-7-7-7----7-7-7------5-5-5-5-5----5-5-5------7-7-7-7-7----7-7-7---|
A|-3------------3--------3-5------------5--------5-3------------5--------5-3------------5--------5-|
E|-------------------------------------------------------------------------------------------------|
                       AQUI VA EL SEGUNDO CAMBIO
   
  oh    oh    oh   oh          caminando          oh   oh   oh   oh           caminando 
G|-------------------------------------------------------------------------------------------------|
D|----9-9-9-9-9----9-9-9------7-7-7-7-7----7-7-7------9-9-9-9-9----9-9-9------7-7-7-7-7----7-7-7---|
A|-7------------7--------7-5------------5--------5-7------------7--------7-5------------5--------5-|
E|-------------------------------------------------------------------------------------------------|

   oh    oh    oh   oh          caminando          oh   oh   oh   oh           caminando 
G|-------------------------------------------------------------------------------------------------|
D|----9-9-9-9-9----9-9-9------7-7-7-7-7----7-7-7------9-9-9-9-9----9-9-9------7-7-7-7-7----7-7-7---|
A|-7------------7--------7-5------------5--------5-7------------7--------7-5------------5--------5-|
E|-------------------------------------------------------------------------------------------------|


no hay no hay prisa de llegar , no hay no hay prisa de llegar,
G|-------------------------------------------------------------------------------------------------|
D|----5-5-5-5-5----5-5-5------7-7-7-7-7----7-7-7------5-5-5-5-5----5-5-5------7-7-7-7-7----7-7-7---| 
A|-3------------3--------3-5------------5--------5-3------------5--------5-3------------5--------5-| 
E|-------------------------------------------------------------------------------------------------|
  
para estar en la arena muy cerca del mar , para ver las gaviotas al atrdecer
G|-------------------------------------------------------------------------------------------------|
D|----5-5-5-5-5----5-5-5------7-7-7-7-7----7-7-7------5-5-5-5-5----5-5-5------7-7-7-7-7----7-7-7---| 
A|-3------------3--------3-5------------5--------5-3------------5--------5-3------------5--------5-| 
E|-------------------------------------------------------------------------------------------------|
  
                 FINAL
G|-----------------------------------|
D|---------2-2-5-5-----------3-3-7-7-|
A|-3-3-3-3-----------5-5-5-5---------|
E|-----------------------------------|

G|-----------------------------------|
D|---------2-2-5-5-----------3-3-7-7-|
A|-3-3-3-3-----------5-5-5-5---------|
E|-----------------------------------|


alguna duda escriban a mi mail
Suggest correction
Give kudos to tab author, rate the tab!
1 2 3 4 5
comments
print report bad tab
guest
Wanna post a correction for this tab? Suggest correction