Oops, an error
Loading. Please wait.

Caminando Tab

71 views 1 this week
no commentswrite comment
1 2 3 4 5
3 more votes to show rating
add to favorites
launch autoscroll
font size
0
reset
how to read this tab
guitar tuner
×
Best way to learn
"Caminando"
Autoscroll
slow
fast
+/-
esc
set tempo
stop
INTRO X 2

e|----------------------|----------------------------|
B|----------------------|----------------------------|
G|----------------0--0--|---------------2--2---------|
D|----------2-2---------|----------3-3---------------|
A|--3-3-3-3-------------|--5-5-5-5-------------------|
E|----------------------|----------------------------|


BASE.... (estoy aqui parado..)

  C                       Dm

e|----3---3---3---3--|--5---5---5---5---|
B|----5---5---5---5--|--6---6---6---6---|
G|----5---5---5---5--|--7---7---7---7---|
D|----5---5---5---5--|--7---7---7---7---|
A|----3---3---3---3--|--5---5---5---5---|
E|----3---3---3---3--|--5---5---5---5---|


CAMBIO...  (oooo... caminando...)

  Em                     Dm

e|----7---7---7---7--|--5---5---5---5---|
B|----8---8---8---8--|--6---6---6---6---|
G|----9---9---9---9--|--7---7---7---7---|
D|----9---9---9---9--|--7---7---7---7---|
A|----7---7---7---7--|--5---5---5---5---|
E|----7---7---7---7--|--5---5---5---5---|


SE REPITE ESTO... ESPERO LES SIRVA
COMENTARIOS... DUDAS O LO QUE SEA AL CORREO QUE APARECE
Suggest correction
Give kudos to tab author, rate the tab!
1 2 3 4 5
comments
print report bad tab
guest
You may want to rate the tab now too:
select rating
Wanna post a correction for this tab? Suggest correction