Oops, an error
Loading. Please wait.

Batiste Ceba Bass

110 views 1 this week
no commentswrite comment
1 2 3 4 5
3 more votes to show rating
add to favorites
×
Save as Personal and add changes to this tab that will be seen only by you. Learn more ›
×
You can save this tab as Personal to edit and correct it or add notes. All changes will be seen only by you. Learn more »
save as personal
new!
launch autoscroll
font size
0
reset
guitar tuner
Autoscroll
slow
fast
+/-
esc
set tempo
stop
INTRO DE DOLÇAINA


ESTRIBILLO(el bajo entra para acompañar la dolçaina):

|   q  q  q  q  q  q  q  q  q  q  q  q  q  q  q  q
G ---------------------------------------------------------------
D --------4-----------------------7------------------------------
A --2--5-----5--------5-----5--9-----9--------4------------------
E --------------3--7-----7--------------2--5-----5---------------
>

|   q  q  q  q  q  q  q  q  q  q  q  q  q  q  q  q
G ---------------------------------------------------------------
D --------4-----------------------7------------------------------
A --2--5-----5--------5-----5--9-----9--------7------------------
E --------------3--7-----7--------------5--9-----9---------------
>

|   q  q  q  q  q  q  q  q  q  q  q  q  q  q  q  q
G ----------------------------------------------------------------
D --------4-----------------------7-------------------------------
A --2--5-----5--------5-----5--9-----9--------4-------------------
E --------------3--7-----7--------------2--5-----5----------------
>

|   q  q  q  q  q  q  q  q  q  q  q  q  q  q  q  q
G ----------------------------------------------------------------
D --------4-----------------------7-------------------------------
A --2--5-----5--------5-----5--9-----9--------7-------------------
E --------------3--7-----7--------------5--9-----5----------------
>
                                            A
                                            |_____ si te fijas aquí,
                                                   marcas estas 4 últimas
                                                   notas,que son mas
                                                   lentas, fijaos


ESTROFA:

|   q  e  e  q  e  e  q  e  e  q  e  e
G -----------------------------------------------------------
D -----------------------------------------------------------
A -----------9--7--9-----------7--5--7-----------------------
E --7--7--7-----------5--5--5--------------------------------
>


ESTRIBILLO


ESTROFA


ESTRIBILLO


PUENTE:

|   q  q  q  q  q  q  q  q  q  w
G ----------------------------------------------------------
D ----------------------------------------------------------
A ----------------------------------------------------------
E --7--7--7--5--5--5--7--7--7--5(esta se deja sonar)--------
>

|   q  q  q  q  q  q  q  q  q  w
G ----------------------------------------------------------
D ----------------------------------------------------------
A ----------------------------------------------------------
E --7--7--7--5--5--5--7--7--7--5(se deja sonar)-------------
>


ESTRIBILLO


PARTE LENTA (de la flor del taronger....)


ESTRIBILLO


ESTRIBILLO PUNK
|   s  s  s  s  s  s  s  s  s  s  s  s  s  s  s  s  s  s  s  s  s  s  s  s
G ------------------------------------------------------------------------
D ------------------------------------------------------------------------
A --------------------------------------5--5--5--5--5--5------------------
E --7--7--7--7--7--7--3--3--3--3--3--3--------------------2--2--2--2--2--2
>

|   s  s  s  s  s  s  s  s  s  s  s  s  s  s  s  s  s  s  s  s  s  s  s  s
G ------------------------------------------------------------------------
D ------------------------------------------------------------------------
A --------------------------------------5--5--5--5--5--5------------------
E --7--7--7--7--7--7--3--3--3--3--3--3--------------------5--5--5--5--5--5

y se repite hasta el final


Saludos a todos!
Suggest correction
Give kudos to tab author, rate the tab!
1 2 3 4 5
comments
print report bad tab
guest
Wanna post a correction for this tab? Suggest correction